Oops, an error
Loading. Please wait.

Psychotron Bass Tab

version 1
version 1

Whole song

Interactive

2,632 views 1 this week
1 commentread comment
1 2 3 4 5
excellent!
x 3
add to favorites
launch autoscroll
font size
0
reset
guitar tuner
Tab Pro tools
  • play this tab
  • loop segment
  • change instrument
  • show fretboard
  • metronome
Autoscroll
slow
fast
+/-
esc
set tempo
stop
Contributor
Intro -
G|-----------------|-----------------|-----------------|-----------------|
D|-----------------|-----------------|-----------------|-----------------|
A|-----7-----------|-2/3-------------|-----7-----------|-2/3---------9-8-|
E|-0---------7-----|-----0-3---0-2-1-|-0---------7-----|-----0-3---0-----|

G|-----------------|-----------------|-----------------|-----------------|
D|-----------------|-----------------|-----------------|-----------------|
A|-7---7-----------|-2/3-------------|-----7-----------|-2/3---------9-8-|
E|-----------7-----|-----0-3---0-2-1-|-0---------7-----|-----0-3---0-----|

G|-----------------|-----------------|-----------------|-----------------|
D|---R-------------|-----------------|-----------------|-----------------|
A|-7---------------|-----------------|-----------------|-----------------|
E|-----------------|-----------------|-----------------|-----------1---1-|

G|-----------------|-----------------|-----------------|-----------------|
D|-----------------|-----------------|-----------------|-----------------|
A|-----------------|-----------------|-----------------|-------R---------|
E|-0-000---000--112|/3-000---000--111|-1-000---000--112|/3-001-----------|

G|-----------------||
D|-----------------||
A|-----------------||
E|---------------1-||

Riff 1
G|-----------------|-----------------|-----------------|-----------------|
D|-----------------|-----------------|-----------------|-----------------|
A|-----R-----R-----|-----R-----R-----|-----R-----R---7-|---5-------------|
E|-0-0---0-0-------|-0-0---0-0-------|-0-0---0-0-------|-----7-6-5-3-5-6-|

G|-----------------|-----------------|-----------------|-----------------||2x
D|-----------------|-----------------|-----------------|-----------------||
A|-----R-----R-----|-----R-----R-----|-----R-----R---2-|---0-3-2-5-3-----||
E|-0-0---0-0-------|-0-0---0-0-------|-0-0---0-0-------|-------------2-3-||

Riff 2
G|-----------------|-----------------|-----------------|-----------------||
D|-----------------|-----------------|-----------------|-----------------||
A|-----R---7\\\\---|-----R---7\\\\---|-----R---7\------|-----------------||
E|-0-0---0---------|-0-0---0---------|-0-0---0-----3---|---------------1-||

Riff 3
G|-----------------|-----------------|-----------------|-----------------|
D|-----------------|-----------------|-----------------|-----------------|
A|-----7-----------|-2/3-------------|-----7-----------|-2/3---------9-8-|
E|-0---------7-----|-----0-3---0-2-1-|-0---------7-----|-----0-3---0-----|

G|-----------------|-----------------|-----------------|-----------------|
D|-----------------|-----------------|-----------------|-----------------|
A|-7---7-----------|-2/3-------------|-----7-----------|-3-3-3-3-3-3-3-3-|
E|-----------7-----|-----0-3---0-2-1-|-0---------7-----|-----------------|

G|-----------------||
D|-----------------||
A|-3-2-----2-------||
E|-----5-3---5-3-1-||

Play Riff 1 - 2x
Play Riff 2
Play Riff 3 - 2x

Solo
G|-----------------|-----------------|-----------------|-----------------|
D|-----------------|-----------------|-----------------|-----------------|
A|-R-----R-----R---|-------R-----R---|-------R-----R---|-------R-----R---|
E|---222---222---5-|-2-222---222---3-|-2-222---222---5-|-2-222-----3---3-|

G|-----------------|-----------------|-----------------|-----------------|
D|-----------------|-----------------|-----------------|-----------------|
A|-R-----R-----R---|-------R-----R---|-------R-----R---|-----------------|
E|---222---222---5-|-2-222---222---3-|-2-222---222---5-|-2-223-----------|

G|-----------------||
D|-----------------||
A|-----------------||
E|---------------1-||

Riff 1a
G|-----------------|-----------------|-----------------|-----------------|
D|-----------------|-----------------|-----------------|-----------------|
A|-----R-----R-----|-----R-----R-----|-----R-----R---7-|---5-------------|
E|-0-0---0-0-------|-0-0---0-0-------|-0-0---0-0-------|-----7-6-5-3-5-6-|

G|-----------------|-----------------|-----------------|-----------------|
D|-----------------|-----------------|-----------------|-----------------|
A|-----R-----R-----|-----R-----R-----|-----R-----R---2-|---0-3-2-5-3-----|
E|-0-0---0-0-------|-0-0---0-0-------|-0-0---0-0-------|-------------2-3-|

G|-----------------|-----------------|-----------------|-----------------|
D|-----------------|-----------------|-----------------|-----------------|
A|-----R-----R-----|-----R-----R-----|-----R-----R---7-|---5-------------|
E|-0-0---0-0-------|-0-0---0-0-------|-0-0---0-0-------|-----7-6-5-3-5-6-|

G|-----------------|-----------------|-----------------|-----------------||
D|-----------------|-----------------|-----------------|-----------------||
A|-----R-----R-----|-----R-----R-----|-----R-----R-----|-----------------||
E|-0-0---0-0-------|-0-0---0-0-------|-0-0---0-0-----3-|-------------1---||

Play Riff 3 - 2x

Outro
G|-----------------|-----------------|-----------------|-----------------|3x
D|-----------------|-----------------|-----------------|-----------------|
A|-----------------|-----------------|-----------------|-------------R---|
E|-0-000---000--2/3|-0-000---000-0-1-|---000---000--2/3|-0-000---001---1-|

G|-----------------|-----------------|-----------------|-----------------|
D|-----------------|-----------------|-----------------|-----------------|
A|-----------------|-----------------|-----------------|-----------------|
E|-0-000---000--2/3|-0-000---000-0-1-|---000---000--2/3|-0-001-----3---5-|

G|-----------------||
D|-----------------||
A|---R-------------||
E|-0---------------||

Note: David Ellefson is a god. When i found out this site didn't have tabs for this 
i went looking at other sites and found partial tabs. So i took what i found and worked out 
rest.
comments
We did not receive enough feedback on this tab! Please rate:
print report bad tab
1 2 3 4 5
1 comment total.
+1 reply
cancer_monkey wrote on May 22 2008, 04:09 pm

Thanks man, this works for me! Great tab! :D

I want to post or [tab]
guest
You may want to rate the tab now too:
select rating
Please do not post tabs as comments. Select "correction" instead!