Oops, an error
Loading. Please wait.

Psychotron Tab

version 1
version 1

Whole song

Interactive

24,684 views 9 this week
3 commentsread comments
1 2 3 4 5
x 18
add to favorites
launch autoscroll
font size
0
reset
how to read this tab
guitar tuner
backing track
0:00
0:00
×
Best way to learn
"Psychotron"
Autoscroll
slow
fast
+/-
esc
set tempo
stop
Author
Artist: Megadeth
Album: Countdown to Extinction
Song: Psychotron

Tabbed by: John Mercer
E-mail: spacenumber6@hotmail.com

The whole thing is laid out.
Timing is off, solo timing is way off.


Intro
  E     B    C      G            E     B    C      G
                  Pm    Pm-----                  Pm    Pm
e|------------------------------|---------------------------------|
B|------------------------------|---------------------------------|
G|------------------------------|---------------------------------|
D|----9-------------------------|----9----------------------------|
A|----7--9--9/10-----5----------|----7--9--9/10-----5-----9--8--7-|
E|-0-----7--7/8---0--3--0--2--1-|-0-----7--7/8---0--3--0----------|

  E  B    C      G            E     B    C      G
               Pm    Pm-----
e|---------------------------|---------------------------------|
B|---------------------------|---------------------------------|
G|---------------------------|---------------------------------|
D|-9-------------------------|----9----------------------------|
A|-7--9--9/10-----5----------|----7--9--9/10-----5-----9--8--7-|
E|----7--7/8---0--3--0--2--1-|-0-----7--7/8---0--3--0----------|   

      E         F     G Ab     E         F
e|-------------------------------------------------|
B|-------------------------------------------------|
G|-------------------------------------------------|
D|-------------------------------------------------|
A|-x-x-2--x-x-2--3-3-3/5/6--x-x-2--x-x-2--3-3-3--3-|
E|-x-x-0--x-x-0--1-1-1/3/4--x-x-0--x-x-0--1-1-1--1-|

      E         F     G Ab     E      F
                                             Pm
e|----------------------------------------------|
B|----------------------------------------------|
G|----------------------------------------------|
D|----------------------------------------------|
A|-x-x-2--x-x-2--3-3-3/5/6--x-x-2--x-x-3--3-----|
E|-x-x-0--x-x-0--1-1-1/3/4--x-x-0--x-x-1--1--0--|

      E         F     G Ab     E         F             E         F     G Ab
e|--------------------------------------------------------------------------|
B|--------------------------------------------------------------------------|
G|--------------------------------------------------------------------------|
D|--------------------------------------------------------------------------|
A|-x-x-2--x-x-2--3-3-3/5/6--x-x-2--x-x-2--3-3-3--3--x-x-2--x-x-2--3-3-3/5/6-|
E|-x-x-0--x-x-0--1-1-1/3/4--x-x-0--x-x-0--1-1-1--1--x-x-0--x-x-0--1-1-1/3/4-|

       F
           Psychotron
e|----------------------------|
B|----------------------------|
G|----------------------------|
D|----------------------------|
A|-x-x--3------------------3--|
E|-x-x--1------------------1--|

Verse
  E                F            G          Ab           E          F
     Assassin in stealth     assailant from hell    impervious     to
   Pm--     Pm--           Pm--     Pm--           Pm--     Pm--
e|-----------------------|-----------------------|---------------------|
B|-----------------------|-----------------------|---------------------|
G|-----------------------|-----------------------|---------------------|
D|-------2--------2/3--0-|-------5--------5/6--3-|-------2--------2/3--|
A|-------2--------2/3--0-|-------5--------5/6--3-|-------2--------2/3--|
E|-0--0-----0--0---------|-0--0-----0--0---------|-0--0-----0--0-------|

  Damage

  Grt 1
e|----------------------------|
B|----------------------------|
G|----------------------------|
D|-2------0-------------------|
A|-----------3--2--0-----0--1-|
E|--------------------3-------|
                              |
  Gtr 2                       |
e|----------------------------|
B|----------------------------|
G|-4------2-------------------|
D|-----------5--4--3--2--2--3-|
A|----------------------------|
E|----------------------------|

  E                F            G          Ab           E          F
   Pm--     Pm--           Pm--     Pm--           Pm--     Pm--
e|-----------------------|-----------------------|--------------------------|
B|-----------------------|-----------------------|--------------------------|
G|-----------------------|-----------------------|--------------------------|
D|-------2--------2/3--0-|-------5--------5/6--3-|-------2--------2/3---1---|
A|-------2--------2/3--0-|-------5--------5/6--3-|-------2--------2/3---2---|
E|-0--0-----0--0---------|-0--0-----0--0---------|-0--0-----0--0------------|
                                                                            |
  Gtr 3                                                                     |
e|-----------------------|-----------------------|--------------------------|
B|-5--8\--7/10--10-------|-8--5--8\7--7----------|--------------------------|
G|-4--7\--6/9---9--------|-7--4--7\6--6----------|-/9~~~--------------------|
D|-----------------------|-----------------------|-------9-7------8-7-----7-|
A|-----------------------|-----------------------|-----------10-7-----7-5---|
E|-----------------------|-----------------------|--------------------------|

  Gtr 1
e|----------------------|
B|----------------------|
G|----------------------|
D|-0--2--1--4--2--4--5--|
A|----------------2--3--|
E|----------------------|
                        |
  Gtr 2                 |
e|----------------------|
B|----------------------|
G|----------------------|
D|----------------4--5--|
A|-0--3--2--5--3--2--3--|
E|----------------------|

  E                F            G          Ab           E          F
   computer    on board       engaged    in  war       non-stop combat-
   Pm--     Pm--           Pm--     Pm--           Pm--     Pm--
e|-----------------------|-----------------------|---------------------|
B|-----------------------|-----------------------|---------------------|
G|-----------------------|-----------------------|---------------------|
D|-------2--------2/3--0-|-------5--------5/6--3-|-------2--------2/3--|
A|-------2--------2/3--0-|-------5--------5/6--3-|-------2--------2/3--|
E|-0--0-----0--0---------|-0--0-----0--0---------|-0--0-----0--0-------|

  ant

  Grt 1
e|----------------------------|
B|----------------------------|
G|----------------------------|
D|-2------0-------------------|
A|-----------3--2--0-----0--1-|
E|--------------------3-------|
                              |
  Gtr 2                       |
e|----------------------------|
B|----------------------------|
G|-4------2-------------------|
D|-----------5--4--3--2--2--3-|
A|----------------------------|
E|----------------------------|

 E                F                           G          Ab           
   Pm--     Pm--                          Pm--     Pm--           
e|-------------------------------------|-----------------------|
B|-------------------------------------|-----------------------|
G|-------------------------------------|-----------------------|
D|-------2--------2/3--0---------------|-------5--------5/6--3-|
A|-------2--------2/3--0---------------|-------5--------5/6--3-|
E|-0--0-----0--0-----------------------|-0--0-----0--0---------|
                                                               |
  Gtr 3                                                        |
e|-------------------------------------|-----------------------|
B|-------------------------------------|----15-16-15-16--------|
G|-------14----15----------16----18-17-|-18-------------17b----|
D|----13----------14----15----15-------|-----------------------|
A|-12-------13-------14----------------|-----------------------|
E|-------------------------------------|-----------------------|

        E          F
   Pm--     Pm--
e|--------------------------------------------|
B|--------------------------------------------|
G|--------------------------------------------|
D|-------2--------2/3---1---------------------|
A|-------2--------2/3---2---------------------|
E|-0--0-----0--0------------------------------|
                                              |
e|--------------------------------------------|
B|--------17-16-15----15-15-------------------|
G|-16-14----------16-------16-15-14-12h14-12b-|
D|--------------------------------------------|
A|--------------------------------------------|
E|--------------------------------------------|

  Gtr 1
e|----------------------|
B|----------------------|
G|----------------------|
D|-0--2--1--4--2--4--5--|
A|----------------2--3--|
E|----------------------|
                        |
  Gtr 2                 |
e|----------------------|
B|----------------------|
G|----------------------|
D|----------------4--5--|
A|-0--3--2--5--3--2--3--|
E|----------------------|

[Pre-Chorus]
  E
       Maybe not,                  Not a mutant
   Pm--------                       Pm--------
e|--------------------------------|----------------------------------|
B|--------------------------------|----------------------------------|
G|--------------------------------|----------------------------------|
D|--------------9----(9)/---------|--------------9----(9)/-----------|
A|--------------7----(7)/---------|--------------7----(7)/-----------|
E|-0---0----0---------------------|-0---0----0-----------------------|

  E                  G                         F
     Maybe  a        man
   Pm--------
e|--------------------------------|----------------|
B|--------------------------------|----------------|
G|--------------------------------|----------------|
D|--------------9/----------------|----------------|
A|--------------7/----5-----------|-------------3--|
E|-0---0----0---------3-----------|-------------1--|
    
[Chorus]
  E     B    C      G            E     B    C      G
     Part bionic  in organic        not a cyborg
                  Pm    Pm-----                  Pm    Pm
e|------------------------------|---------------------------------|
B|------------------------------|---------------------------------|
G|------------------------------|---------------------------------|
D|----9-------------------------|----9----------------------------|
A|----7--9--9/10-----5----------|----7--9--9/10-----5-----9--8--7-|
E|-0-----7--7/8---0--3--0--2--1-|-0-----7--7/8---0--3--0----------|

  E    B    C      G            E             B  C  
    Part bionic in organic         not a cyborg  Call him Psychotron
               Pm    Pm-----                          Pm--------------
e|-----------------------------|---------------------------------------|
B|-----------------------------|---------------------------------------|
G|-----------------------------|---------------------------------------|
D|---9-------------------------|----9-------------4/5------------------|
A|-7-7--9--9/10-----5----------|----7----------9--2/3-3--3--3--3--3--3-|
E|------7--7/8---0--3--0--2--1-|-0-------------7-----------------------|   

     Psychotron

  Gtr 1
e|-------------------------|
B|-------------------------|
G|-------------------------|
D|-------------------------|
A|-3--2--------2-----------|
E|-------5--3-----5--3--1--|
                           |
   Gtr 2                   |
e|-------------------------|
B|-------------------------|
G|-------------------------|
D|-2--0--------0-----------|
A|-------3--2-----3--2--0--|
E|-------------------------|

2nd Verse
  E                F            G          Ab           E          F
     Burning inside         god speed in glide          battle  plan
   Pm--     Pm--           Pm--     Pm--           Pm--     Pm--
e|-----------------------|-----------------------|---------------------|
B|-----------------------|-----------------------|---------------------|
G|-----------------------|-----------------------|---------------------|
D|-------2--------2/3--0-|-------5--------5/6--3-|-------2--------2/3--|
A|-------2--------2/3--0-|-------5--------5/6--3-|-------2--------2/3--|
E|-0--0-----0--0---------|-0--0-----0--0---------|-0--0-----0--0-------|

  running

  Grt 1
e|------------------------------|
B|------------------------------|
G|------------------------------|
D|-2------0---------------------|
A|-----------3--2--0-----0--1---|
E|--------------------3---------|
                                |
  Gtr 2                         |
e|------------------------------|
B|------------------------------|
G|-4------2---------------------|
D|-----------5--4--3--2--2--3---|
A|------------------------------|
E|------------------------------|
                                |
  Gtr 3                         |
e|--------------------------17b-|
B|-----------------------15-----|
G|--------------------16--------|
D|------------------------------|
A|------------------------------|
E|------------------------------|

  E                F                     G          Ab          
   Pm--     Pm--                    Pm--     Pm--                
e|--------------------------------|---------------------------|
B|--------------------------------|---------------------------|
G|--------------------------------|---------------------------|
D|-------2--------2/3--0----------|-------5--------5/6--3-----|
A|-------2--------2/3--0----------|-------5--------5/6--3-----|
E|-0--0-----0--0------------------|-0--0-----0--0-------------|
                                                              |
  Gtr 3                                                       |
e|-15-------17b-15-------15-------|-17b-17b-17b-15------------|
B|----17p15--------17p15----17p15-|----------------17-17\-----|
G|--------------------------------|-----------------------14b-|
D|--------------------------------|---------------------------|
A|--------------------------------|---------------------------|
E|--------------------------------|---------------------------|

        E          F
   Pm--     Pm--
e|------------------------------------|
B|------------------------------------|
G|------------------------------------|
D|-------2--------2/3---1-------------|
A|-------2--------2/3---2-------------|
E|-0--0-----0--0----------------------|
                                      |
e|-12--------12-----------------------|
B|----12-15b----15p12-----------------|
G|--------------------14b-12----12----|
D|---------------------------14----14-|
A|------------------------------------|
E|------------------------------------|

  Gtr 1
e|--------------------------|
B|--------------------------|
G|--------------------------|
D|-0--2--1--4--2--4--5------|
A|----------------2--3------|
E|--------------------------|
                            |
  Gtr 2                     |
e|--------------------------|
B|--------------------------|
G|--------------------------|
D|----------------4--5------|
A|-0--3--2--5--3--2--3------|
E|--------------------------|
                            |
  Gtr 3                     |
e|--------------------------|
B|--------------------------|
G|--------------------------|
D|-14p12-14-12h14p12--------|
A|-------------------14-10\-|
E|--------------------------|

  E                F            G          Ab           E          F
   A killing machine       just down right mean      and forever  gun-
   Pm--     Pm--           Pm--     Pm--           Pm--     Pm--
e|-----------------------|-----------------------|---------------------|
B|-----------------------|-----------------------|---------------------|
G|-----------------------|-----------------------|---------------------|
D|-------2--------2/3--0-|-------5--------5/6--3-|-------2--------2/3--|
A|-------2--------2/3--0-|-------5--------5/6--3-|-------2--------2/3--|
E|-0--0-----0--0---------|-0--0-----0--0---------|-0--0-----0--0-------|

 ning

  Grt 1
e|----------------------------|
B|----------------------------|
G|----------------------------|
D|-2------0-------------------|
A|-----------3--2--0-----0--1-|
E|--------------------3-------|
                              |
  Gtr 2                       |
e|----------------------------|
B|----------------------------|
G|-4------2-------------------|
D|-----------5--4--3--2--2--3-|
A|----------------------------|
E|----------------------------|
                              |
  Gtr 3                       |
e|----------------------------|
B|-----------------------17br-|
G|----------------------------|
D|----------------------------|
A|----------------------------|
E|----------------------------|

 E                F                  G          Ab           
   Pm--     Pm--                Pm--     Pm--           
e|----------------------------|--------------------------------|
B|----------------------------|--------------------------------|
G|----------------------------|--------------------------------|
D|-------2--------2/3--0------|-------5--------5/6--3----------|
A|-------2--------2/3--0------|-------5--------5/6--3----------|
E|-0--0-----0--0--------------|-0--0-----0--0------------------|
                                                               |
  Gtr 3                                                        |
e|----------------------------|--------------------------------|
B|-15h17-17----------14-15----|-14-----------------------------|
G|----------14-15-16-------16-|----16-15-14-12-14-14b-12b-12~~-|
D|----------------------------|--------------------------------|
A|----------------------------|--------------------------------|
E|----------------------------|--------------------------------|

        E          F
   Pm--     Pm--
e|-------------------------|
B|-------------------------|
G|-------------------------|
D|-------2--------2/3---1--|
A|-------2--------2/3---2--|
E|-0--0-----0--0-----------|
                           |
e|----7--------------------|
B|------5p3p0--------------|
G|-/9---------7h9-7--------|
D|------------------9p7-8--|
A|-------------------------|
E|-------------------------|

  Gtr 1
e|--------------------------|
B|--------------------------|
G|--------------------------|
D|-0--2--1--4--2--4--5------|
A|----------------2--3------|
E|--------------------------|
                            |
  Gtr 2                     |
e|--------------------------|
B|--------------------------|
G|--------------------------|
D|----------------4--5------|
A|-0--3--2--5--3--2--3------|
E|--------------------------|
                            |
  Gtr 3                     |
e|--------------------------|
B|-10/11\10\8/10-10-10-10\--|
G|--------------------------|
D|-7-/8-\7-\5/7--7--7--7-\--|
A|--------------------------|
E|--------------------------|

2nd Pre-Chorus

  E
       Maybe not,                  Not a mutant
   Pm--------                       Pm--------
e|--------------------------------|----------------------------------|
B|--------------------------------|----------------------------------|
G|--------------------------------|----------------------------------|
D|--------------9----(9)/---------|--------------9----(9)/-----------|
A|--------------7----(7)/---------|--------------7----(7)/-----------|
E|-0---0----0---------------------|-0---0----0-----------------------|

  E                  G                         F
     Maybe  a        man
   Pm--------
e|--------------------------------|----------------|
B|--------------------------------|----------------|
G|--------------------------------|----------------|
D|--------------9/----------------|----------------|
A|--------------7/----5-----------|-------------3--|
E|-0---0----0---------3-----------|-------------1--|
    
2nd Chorus
  E     B    C      G            E     B    C      G
     Part bionic  in organic        not a cyborg
                  Pm    Pm-----                  Pm    Pm
e|------------------------------|---------------------------------|
B|------------------------------|---------------------------------|
G|------------------------------|---------------------------------|
D|----9-------------------------|----9----------------------------|
A|----7--9--9/10-----5----------|----7--9--9/10-----5-----9--8--7-|
E|-0-----7--7/8---0--3--0--2--1-|-0-----7--7/8---0--3--0----------|

 E     B    C      G            E             B  C  
    Part bionic in organic         not a cyborg  Call him Psychotron
               Pm    Pm-----                          Pm--------------
e|-----------------------------|---------------------------------------|
B|-----------------------------|---------------------------------------|
G|-----------------------------|---------------------------------------|
D|---9-------------------------|----9-------------4/5------------------|
A|-7-7--9--9/10-----5----------|----7----------9--2/3-3--3--3--3--3--3-|
E|------7--7/8---0--3--0--2--1-|-0-------------7-----------------------|   

     Psychotron

  Gtr 1
e|-------------------------|
B|-------------------------|
G|-------------------------|
D|-------------------------|
A|-3--2--------2-----------|
E|-------5--3-----5--3--1--|
                           |
  Gtr 2                    |
e|-------------------------|
B|-------------------------|
G|-------------------------|
D|-2--0--------0-----------|
A|-------3--2-----3--2--0--|
E|-------------------------|

  E     B    C      G            E     B    C      G
     Part bionic  in organic        not a cyborg
                  Pm    Pm-----                  Pm    Pm
e|------------------------------|---------------------------------|
B|------------------------------|---------------------------------|
G|------------------------------|---------------------------------|
D|----9-------------------------|----9----------------------------|
A|----7--9--9/10-----5----------|----7--9--9/10-----5-----9--8--7-|
E|-0-----7--7/8---0--3--0--2--1-|-0-----7--7/8---0--3--0----------|

 E     B    C      G            E             B  C  
    Part bionic in organic         not a cyborg  Call him Psychotron
               Pm    Pm-----                          Pm--------------
e|-----------------------------|---------------------------------------|
B|-----------------------------|---------------------------------------|
G|-----------------------------|---------------------------------------|
D|---9-------------------------|----9-------------4/5------------------|
A|-7-7--9--9/10-----5----------|----7----------9--2/3-3--3--3--3--3--3-|
E|------7--7/8---0--3--0--2--1-|-0-------------7-----------------------|   

     Psychotron
  Gtr 1
e|-------------------------|
B|-------------------------|
G|-------------------------|
D|-------------------------|
A|-3--2--------2-----------|
E|-------5--3-----5--3--1--|
                           |
  Gtr 2                    |
e|-------------------------|
B|-------------------------|
G|-------------------------|
D|-2--0--------0-----------|
A|-------3--2-----3--2--0--|
E|-------------------------|

[Solo]
      F#                  A           F#                      G
  (Marty)
e|-----------------------------------|----------------------------|
B|-----------------17b-------(17)----|-14~~~----14b-----(14)------|
G|-----------------------------------|----------------------------|
D|-----------------------------------|----------------------------|
A|-----------------------------------|----------------------------|
E|-----------------------------------|----------------------------|
                                                                  |
  (Dave)                                                          |
       Pm-------------------------------------------------------  |
e|-----------------------------------|----------------------------|
B|-----------------------------------|----------------------------|
G|-----------------------------------|----------------------------|
D|-------------------------2---------|----------------------------|
A|-----4-4-4----4-4-4------0---------|-4----4-4-4-----4-4-4----5--|
E|-----2-2-2----2-2-2----------------|-2----2-2-2-----2-2-2----3--|

       F#                  A          F#                          A
e|----------------------------------|---------------------------------|
B|--10~~~~--------12b-------(12)----|--9~~~~~----9b-----------(9)-----|
G|----------------------------------|---------------------------------|
D|----------------------------------|---------------------------------|
A|----------------------------------|---------------------------------|
E|----------------------------------|---------------------------------|
                                                                      |
        Pm----------------------------------------------------------  |
e|----------------------------------|---------------------------------|
B|----------------------------------|---------------------------------|
G|----------------------------------|---------------------------------|
D|--------------------------2-------|---------------------------------|
A|------4-4-4----4-4-4------0-------|--4----4-4-4----4-4-4---------5--|
E|------2-2-2----2-2-2--------------|--2----2-2-2----2-2-2---------3--|

        F#                  A         F#                           G
e|----------------------------------|------9-------9-10----9-10-12-9-10---9-|
B|-7~~-(7)\-------9-10----9-10-12-9-|10-12---10-12------12--------------12--|
G|-----------/11-------11-----------|---------------------------------------|
D|----------------------------------|---------------------------------------|
A|----------------------------------|---------------------------------------|
E|----------------------------------|---------------------------------------|
                                                                            |
        Pm-----------------------------------------------------------       |
e|----------------------------------|---------------------------------------|
B|----------------------------------|---------------------------------------|
G|----------------------------------|---------------------------------------|
D|---------------------------2------|---------------------------------------|
A|-------4-4-4----4-4-4------0------|--4----4-4-4-----4-4-4---------5-------|
E|-------2-2-2----2-2-2-------------|--2----2-2-2-----2-2-2---------3-------|
    
        F#                  A               F#                      G         F
e|-12b---12-9-----------------------------|--------------------------------------|
B|-------------12b--12-10-----------------|--------------------------------------|
G|------------------------11-9------------|-------------7~~~~~~~~~~~~~~~~~-------|
D|------------------------------11-10-9-7-|--------------------------------------|
A|----------------------------------------|-9-7----------------------------------|
E|----------------------------------------|-------(10)---------------------------|
                                                                                 |
         Pm-----------------------------------------------------------           |
e|----------------------------------------|--------------------------------------|
B|----------------------------------------|--------------------------------------|
G|----------------------------------------|--------------------------------------|
D|---------------------------2------------|--------------------------------------|
A|-------4-4-4----4-4-4------0------------|--4----4-4-4-----4-4-4----5---------3-|
E|-------2-2-2----2-2-2-------------------|--2----2-2-2-----2-2-2----3---------1-|

[3rd Verse]
  E                F            G          Ab           E          F
     Target to destroy         arms in employ       full assualt fire
   Pm--     Pm--           Pm--     Pm--           Pm--     Pm--
e|-----------------------|-----------------------|---------------------|
B|-----------------------|-----------------------|---------------------|
G|-----------------------|-----------------------|---------------------|
D|-------2--------2/3--0-|-------5--------5/6--3-|-------2--------2/3--|
A|-------2--------2/3--0-|-------5--------5/6--3-|-------2--------2/3--|
E|-0--0-----0--0---------|-0--0-----0--0---------|-0--0-----0--0-------|

  threat
  Grt 1
e|------------------------------|
B|------------------------------|
G|------------------------------|
D|-2------0---------------------|
A|-----------3--2--0-----0--1---|
E|--------------------3---------|
                                |
  Gtr 2                         |
e|------------------------------|
B|------------------------------|
G|-4------2---------------------|
D|-----------5--4--3--2--2--3---|
A|------------------------------|
E|------------------------------|
                                |
  Gtr 3                         |
e|----------------------------5-|
B|------------------------------|
G|------------------------------|
D|------------------------------|
A|------------------------------|
E|------------------------------|

  E                F                     G          Ab          
   Pm--     Pm--                    Pm--     Pm--                
e|--------------------------------|---------------------------|
B|--------------------------------|---------------------------|
G|--------------------------------|---------------------------|
D|-------2--------2/3--0----------|-------5--------5/6--3-----|
A|-------2--------2/3--0----------|-------5--------5/6--3-----|
E|-0--0-----0--0------------------|-0--0-----0--0-------------|
                                                              |
  Gtr 3                                                       |
e|--------------------------------|---------------15/17-17-17-|
B|------3h5-5~~--8\5---5~~~-------|-12-14br-12-14-------------|
G|--------------------------------|-12-14br-12-14-12/14-14-14-|
D|--------------------------------|---------------------------|
A|--------------------------------|---------------------------|
E|--x\----------------------------|---------------------------|

        E          F
   Pm--     Pm--
e|-----------------------------------------------|
B|-----------------------------------------------|
G|-----------------------------------------------|
D|-------2--------2/3---1------------------------|
A|-------2--------2/3---2------------------------|
E|-0--0-----0--0---------------------------------|
                                                 |
e|-17/15-15-15-15/17-17-17\15-15-15-15\14-14-14--|
B|-----------------------------------------------|
G|-14/12-12-12-12/14-14-14\12-12-12-12\11-11-11--|
D|-----------------------------------------------|
A|-----------------------------------------------|
E|-----------------------------------------------|

  Gtr 1
e|--------------------------------|
B|--------------------------------|
G|--------------------------------|
D|-0--2--1--4--2--4--5------------|
A|----------------2--3------------|
E|--------------------------------|
                                  |
  Gtr 2                           |
e|--------------------------------|
B|--------------------------------|
G|--------------------------------|
D|----------------4--5------------|
A|-0--3--2--5--3--2--3------------|
E|--------------------------------|
                                  |
  Gtr 3                           |
e|-14\12-12-12-12\10-10-10-10-10b-|
B|--------------------------------|
G|-11\9--9--9--9--7--7--7--7------|
D|--------------------------------|
A|--------------------------------|
E|--------------------------------|

  E                F            G          Ab           E          F
    Sensors indicate       you will terminate     life systems   dis
   Pm--     Pm--           Pm--     Pm--           Pm--     Pm--
e|-----------------------|-----------------------|---------------------|
B|-----------------------|-----------------------|---------------------|
G|-----------------------|-----------------------|---------------------|
D|-------2--------2/3--0-|-------5--------5/6--3-|-------2--------2/3--|
A|-------2--------2/3--0-|-------5--------5/6--3-|-------2--------2/3--|
E|-0--0-----0--0---------|-0--0-----0--0---------|-0--0-----0--0-------|

  connect
  Grt 1
e|----------------------------|
B|----------------------------|
G|----------------------------|
D|-2------0-------------------|
A|-----------3--2--0-----0--1-|
E|--------------------3-------|
                              |
  Gtr 2                       |
e|----------------------------|
B|----------------------------|
G|-4------2-------------------|
D|-----------5--4--3--2--2--3-|
A|----------------------------|
E|----------------------------|
                              |
  Gtr 3                       |
e|-------------------13-13-13-|
B|----------------------------|
G|-------------------10-10-10-|
D|----------------------------|
A|----------------------------|
E|----------------------------|

 E                F             G          Ab           
   Pm--     Pm--           Pm--     Pm--           
e|-----------------------|------------------------------------------|
B|-----------------------|------------------------------------------|
G|-----------------------|------------------------------------------|
D|-------2--------2/3--0-|-------5--------5/6--3--------------------|
A|-------2--------2/3--0-|-------5--------5/6--3--------------------|
E|-0--0-----0--0---------|-0--0-----0--0----------------------------|
                                                                    |
  Gtr 3                                                             |
e|-16-16-16-19-19-19-----|-16-13----------------------------16b-16b-|
B|-----------------------|-------15----------------12h15p12---------|
G|-13-13-13-16-16--------|----------16-13----13-16------------------|
D|-----------------------|----------------15------------------------|
A|-----------------------|------------------------------------------|
E|-----------------------|------------------------------------------|
 
        E          F
   Pm--     Pm--
e|--------------------------|-----------------|
B|--------------------------|-----------------|
G|--------------------------|-----------------|
D|-------2--------2/3---1---|-----------------|
A|-------2--------2/3---2---|--------------3--|
E|-0--0-----0--0------------|--------------1--|
                                              |
e|----------0-0---0h3p0-3br-|-(3)-------------|
B|--------------3-----------|-----------------|
G|-2b-2b-2b-----------------|-----------------|
D|--------------------------|-----------------|
A|--------------------------|-----------------|
E|--------------------------|-----------------|

[3rd Chorus]
  E     B    C      G            E     B    C      G
     Part bionic  in organic        not a cyborg
                  Pm    Pm-----                  Pm    Pm
e|------------------------------|---------------------------------|
B|------------------------------|---------------------------------|
G|------------------------------|---------------------------------|
D|----9-------------------------|----9----------------------------|
A|----7--9--9/10-----5----------|----7--9--9/10-----5-----9--8--7-|
E|-0-----7--7/8---0--3--0--2--1-|-0-----7--7/8---0--3--0----------|

 E     B    C      G            E             B  C  
    Part bionic in organic         not a cyborg  Call him Psychotron
               Pm    Pm-----                          Pm--------------
e|-----------------------------|---------------------------------------|
B|-----------------------------|---------------------------------------|
G|-----------------------------|---------------------------------------|
D|---9-------------------------|----9-------------4/5------------------|
A|-7-7--9--9/10-----5----------|----7----------9--2/3-3--3--3--3--3--3-|
E|------7--7/8---0--3--0--2--1-|-0-------------7-----------------------|   

     Psychotron

  Gtr 1
e|-------------------------|
B|-------------------------|
G|-------------------------|
D|-------------------------|
A|-3--2--------2-----------|
E|-------5--3-----5--3--1--|
                           |
  Gtr 2                    |
e|-------------------------|
B|-------------------------|
G|-------------------------|
D|-2--0--------0-----------|
A|-------3--2-----3--2--0--|
E|-------------------------|

  E     B    C      G            E     B    C      G
     Part bionic  in organic        not a cyborg
                  Pm    Pm-----                  Pm    Pm
e|------------------------------|---------------------------------|
B|------------------------------|---------------------------------|
G|------------------------------|---------------------------------|
D|----9-------------------------|----9----------------------------|
A|----7--9--9/10-----5----------|----7--9--9/10-----5-----9--8--7-|
E|-0-----7--7/8---0--3--0--2--1-|-0-----7--7/8---0--3--0----------|

 E     B    C      G            E             B  C  
    Part bionic in organic         not a cyborg  Call him Psychotron
               Pm    Pm-----                          Pm--------------
e|-----------------------------|---------------------------------------|
B|-----------------------------|---------------------------------------|
G|-----------------------------|---------------------------------------|
D|---9-------------------------|----9-------------4/5------------------|
A|-7-7--9--9/10-----5----------|----7----------9--2/3-3--3--3--3--3--3-|
E|------7--7/8---0--3--0--2--1-|-0-------------7-----------------------|   

     Psychotron
  Gtr 1
e|-------------------------|
B|-------------------------|
G|-------------------------|
D|-------------------------|
A|-3--2--------2-----------|
E|-------5--3-----5--3--1--|
                           |
  Gtr 2                    |
e|-------------------------|
B|-------------------------|
G|-------------------------|
D|-2--0--------0-----------|
A|-------3--2-----3--2--0--|
E|-------------------------|

[Outro](Play 3 times)
    Gtr 2(Marty)
e|------------------------------|------------------------------------|
B|*-----------------------------|------------------------------------|
G|------------------------------|------------------------------------|
D|---------9--------------------|------------------------------------|
A|*-----------------7~~~~~~-----|---------------------------7/-------|
E|--0---------------------------|-7~~~~~---6------------7------------|
                                                                     |
   Pm----------------             Pm-------------------------        |
E|------------------------------|------------------------------------|
B|*-----------------------------|------------------------------------|
G|------------------------------|------------------------------------|
D|------------------------------|------------------------------------|
A|*-2--x-x-2----x-x-2----4/5----|-2----x-x-2--------x-x-2---2---3----|
E|--0--x-x-0----x-x-0----2/3----|-0----x-x-0--------x-x-0---0---1----|

  Play this the first 3 times     
e|--------------------------------|------------------------------|
B|*-------------------------------|-----------------------12~---*|
G|--------------------------------|--------------4----/10--------|
D|--------------------------------|-----3------------------------|
A|*-------------------2-----------|-----------------------------*|
E|--1--------0--------------------|------------------------------|
                                                                 |
    Pm-----------------              Pm--------                  |
E|--------------------------------|------------------------------|
B|*-------------------------------|-----------------------------*|
G|--------------------------------|------------------------------|
D|--------------------------------|------------------------------|
A|*-2----x-x-2----x-x-2----4/5----|--2----x-x-2----2---3----3---*|
E|--0----x-x-0----x-x-0----2/3----|--0----x-x-0----0---1----1----|

                Psy- cho-   tron
  4th time
e|-------------------------|----------------------------------|
B|-------------------------|----------------------------------|
G|-------------------------|----------------------------------|
D|-------3-----------------|----------------------------------|
A|--------------------0----|----------------------------------|
E|----------1----3---------|-0--------------------------------|
                                                              |
   Pm------                                                   |
E|-------------------------|----------------------------------|
B|-------------------------|----------------------------------|
G|-------------------------|----------------------------------|
D|--------------------2----|----------------------------------|
A|-2----x-x-3----5----0----|-2--------------------------------|
E|-0----x-x-1----3---------|-0--------------------------------|


Symbols used in this tab:

Pm= Palm Mute
\= Slide Down
/= Slide Up
x\= Pick Slide
x= Muted String
~= Vibrato
()= Ghost Note
b= Bend
h= Hammer
p= Pull-Off
br= Bend and Release
Suggest correction
comments
print report bad tab
3 comments total.
0 reply
Metalheadhobo1 10 Apr 02, 2014 03:55 PM

Sounds great to me, thanks :)

0 reply
VonMetal 10 Mar 21, 2015 03:29 AM

Hell yeah it does. One of my fav megadeth tunes. Thanks so much for the Tab @John Mercer!

0 reply
mrurarz 10 Jun 07, 2016 06:46 AM

timing bit out but great thanks

guest
You may want to rate the tab now too:
select rating
Wanna post a correction for this tab? Suggest correction