Oops, an error
Loading. Please wait.

Public Enemy No 1 Tab

version 3
version 3

Whole song

Interactive

13,011 views 33 this week
6 commentsread comments
1 2 3 4 5
excellent!
x 10
add to favorites
launch autoscroll
font size
0
reset
how to read this tab
guitar tuner
Tab Pro tools
  • play this tab
  • loop segment
  • change instrument
  • show fretboard
  • metronome
×
Best way to learn
"Public Enemy No 1"
Autoscroll
slow
fast
+/-
esc
set tempo
stop
Contributor
---------------------------------------------------------------------------
                            PUBLIC ENEMY NO. 1 - Megadeth
---------------------------------------------------------------------------

Tuning:Standard(EADGBE)



INTRO (Both Guitars)

e|-------------------------------------|     e|-----------|
B|-------------------------------------|     B|-----------|
G|--------------2-----------------2----|     G|-7-5-7-5-7-|
D|-----3-----3--0--------3-----3--0----|     D|-7-5-7-5-7-|
A|---3-----3-----------3-----3---------|     A|-----------|
E|-1-----0-----------1-----0-----------| x2  E|-----------|


Guitar 1

e|--------------------------------------------------------|
B|--------------------------------------------------------|
G|-----------------------------------------------------5b-|
D|-2---------2---3---------3---4---------4---5------------|
A|-0-000-000-0-0-0-000-000-0-0-0-000-000-0-0-0-000-000----|
E|--------------------------------------------------------|

e|-----------------------------------------------------------|
B|-----------------------------------------------------------|
G|-----------------------------------------------7-5-7-5-7---|
D|-2---------2---3---------3---4---------4---5---7-5-7-5-7---|
A|-0-000-000-0-0-0-000-000-0-0-0-000-000-0-0-0-0-------------| Repeat through solo
E|-----------------------------------------------------------|

Dave Mustaine Guitar Solo (Guitar 2)

e|------------------------------------------------------------------------|
B|------------------------------------------------------------------------|
G|-7b8r7-5---7b8r7-5---7b8r7-5---7b8r7-5---7b8r7-5------5-----------------|
D|---------7---------7---------7---------7----------7p5---7-5-7-5---5-----|
A|----------------------------------------------------------------7---7-5-|
E|------------------------------------------------------------------------|

e|----------------------------------------------------------------------------|
B|--------------------------------20b22~~---20--17h20p17---17h22p17--17h20p17-|
G|------------------------------------------------------20---------20---------|
D|----------------------------------------------------------------------------|
A|-7-5\3---3------5p3h5\------------------------------------------------------|
E|-------5--5p3h5-------------------------------------------------------------|

e|--------------------------------------------------------------|
B|---17h22p17--20h17--20h17---22p17--20p17--22p17---20-20b22~~~-|
G|-20--------20-----20-----20------20-----20-----20-------------|
D|--------------------------------------------------------------|
A|--------------------------------------------------------------|
E|--------------------------------------------------------------|


VERSE RIFF 1 (both guitars)

e|---------------------------------------------------------|
B|---------------------------------------------------------|
G|---------------------------------------------------------|
D|-2---------2---3---------3---4---------4---5-------------|
A|-0-000-000-0-0-0-000-000-0-0-0-000-000-0-0-0-000-000-000-|
E|---------------------------------------------------------|

e|-----------------------------------------------------------|
B|-----------------------------------------------------------|
G|-----------------------------------------------7-5-7-5-7---|
D|-2---------2---3---------3---4---------4---5---7-5-7-5-7---|
A|-0-000-000-0-0-0-000-000-0-0-0-000-000-0-0-0-0-------------|


Pre-chorus

   Ro-ses on your Grave...
e|----------------------------------------------|      e|-----------|
B|----------------------------------------------|      B|-----------|
G|----------------7---5-----------------7---5---|      G|-7-5-7-5-7-|
D|-3------3-------7---5---3-------3-----7---5---|      D|-7-5-7-5-7-|
A|-3------3-------5-------3-------3-----5-------|      A|-----------|
E|-1------0---------------1-------0-------------| x2   E|-----------|


CHORUS

   |PM----------------------| +   |PM----------------------------|
e|---------------------------------------------------------------|
B|---------------------------------------------------------------|
G|---------------------------5b----------------------------7-5---|
D|-2-------3-------4-------5-5b--2-------3-------4-------5-7-5---|
A|-0-0-0-0-0-0-0-0-0-0-0-0-0-----0-0-0-0-0-0-0-0-0-0-0-0-0-------|
E|---------------------------------------------------------------|

   |PM---------------------| +  |PM------------------------------|
e|---------------------------------------------------------------|
B|---------------------------------------------------------------|
G|---------------------------5b---------------------7-5-7-5-7----|
D|-2-------3-------4-------5-5b-2-------3-------4---7-5-7-5-7----|
A|-0-0-0-0-0-0-0-0-0-0-0-0-0----0-0-0-0-0-0-0-0-0-0--------------|
E|---------------------------------------------------------------| x2



GUITAR SOLO 2 - CHRIS BRODERICK

e|-------------------16h17h19p17p16-|-17-------x-17p15p12---------12-|13---12--13----13-------|
B|----------------17----------------|---------------------13----13---|------------15----------|
G|-------16h17h19-------------------|------------------------14------|------------------14-15-|
D|----------------------------------|--------------------------------|------------------------|
A|----------------------------------|--------------------------------|------------------------|
E|----------------------------------|--------------------------------|------------------------|

                                        |(1/32 notes).............|
e|------------14p10------10h14-|--------14h15h17p15p14h15h15p15h17h19p17p15---------------|
B|-----------------12--12------|-------------------------------------------17-------------|
G|-16~~~-------------14--------|-15---15-------------------------------------19p16--------|
D|-----------------------------|----16--------------------------------------------18------|
A|-----------------------------|----------------------------------------------------19p15-|
E|-----------------------------|----------------------------------------------------------|

e|--------------------12-----17p12----------|-------------------13-----17p13----------|
B|------------------------------------------|-----------------------------------------|
G|---------14h17p14-17--17p14-----17p14--14-|-17p14--14h17p14-17--17p14-----17p14--14-|
D|-------14----------------------------14---|------15----------------------------15---|
A|-(15)-------------------------------------|-----------------------------------------|
E|------------------------------------------|-----------------------------------------|

                                                                           T        T
 
e|-------------------14-----17p14-----------|------------------15h19p15h19-24p19p15-19p15-|
B|------------------------------------------|---------------------------------------------|
G|-17p14--14h17p14-17--17p14-----17p14---14-|17p14--16h21p16-21---------------------------|
D|------16-----------------------------16---|------17-------------------------------------|
A|------------------------------------------|---------------------------------------------|
E|------------------------------------------|---------------------------------------------|

   T

e|---------|---------------|
B|-21p17---|-20b22~~~~~~---|
G|------16-|---------------|
D|---------|---------------|
A|---------|---------------|
E|---------|---------------|





VERSE 2(same as verse 1)

CHORUS 2 (same as chorus 1)


GUITAR SOLO 3 (Dave Mustaine)


e|-20----20b22~---20--19--17----------15------------------------------------------------------|
B|---------------------------20-19-17----17-16-15----------------------------------17-20-17---|
G|-----------------------------------------------17-14-17b19r17~----17-19b20--20-21--------20-|
D|----------------------------------------------------------------19--------------------------|
A|--------------------------------------------------------------------------------------------|
E|--------------------------------------------------------------------------------------------|

e|-----------------------------------------------------------------------17-|
B|---17h22p17--20h17--20h17---22p17--17h20p17-17-17h22p17-17h20p17-17-20----|
G|-19--------19-----19-----19------19---------------------------------------|
D|--------------------------------------------------------------------------|
A|--------------------------------------------------------------------------|
E|--------------------------------------------------------------------------|

e|-19-19-19-19-19-19-19-19-19--17-19-17--------------------------------------------------------|
B|-------------------------------------20-20-20-20-20-20-20-20-20~--20p19--------20p19---------|
G|-----------------------------------------------------------------------19-20b22-----19-20b22-|
D|---------------------------------------------------------------------------------------------|
A|---------------------------------------------------------------------------------------------|
E|---------------------------------------------------------------------------------------------|

e|------------------19----------14-12---14b15br14-----|
B|-20p19-22b24r22-20--19~~---12------12----------12...| I don't really know
G|----------------------------------------------------| the rest of the solo
D|----------------------------------------------------| yet.
A|----------------------------------------------------|
E|----------------------------------------------------| 


"BRIDGE" (3:34) play the same riff as in the chorus


CHORUS 3 (same as chorus 1 & 2)


OUTRO

e|----------------------------------------------------------------|
B|----------------------------------------------------------------|
G|----------------------7-5-7-5-7-----------------------7-5-7-5-7-|
D|--2-------3-------4---7-5-7-5-7---2-------3-------4---7-5-7-5-7-|
A|--0-0-0-0-0-0-0-0-0-0-----------0-0-0-0-0-0-0-0-0-0-0-----------|
E|----------------------------------------------------------------| x2





************************************

| /   slide up
| \   slide down
| h   hammer-on
| p   pull-off
| ~   vibrato
| +   harmonic
| PM  palm mute
| b   Bend
| pb  Pre-bend
| br  Bend release
| pbr Pre-bend release
| T   Tap

************************************
comments
print report bad tab
6 comments total. Showing first comments.
+1 reply
thechaostheory wrote on October 29 2012, 09:15 pm

*GUITAR SOLO 2 - CHRIS BRODERICK
I don't really know the whole solo and i dont think many of you can play it either so i
will leave it blank until further notice*

Please tab it. Make the users at UG very happy!

0 reply
tabrailer wrote on December 1 2012, 01:10 pm

Tabbed it now :)
I will tab the second Chris Broderick solo later.

0 reply
tabrailer wrote on December 1 2012, 01:12 pm

I've tabbed the chris broderick solo now :)

I want to post or [tab]
guest
You may want to rate the tab now too:
select rating
Please do not post tabs as comments. Select "correction" instead!