Oops, an error
Loading. Please wait.

Return To Hangar 18 Bass Tab

2,083 views 3 this week
no commentswrite comment
1 2 3 4 5
please rate
add to favorites
launch autoscroll
font size
0
reset
guitar tuner
Tab Pro tools
  • play this tab
  • loop segment
  • change instrument
  • show fretboard
  • metronome
×
Best way to learn
"Return To Hangar 18"
Autoscroll
slow
fast
+/-
esc
set tempo
stop
Contributor
Tuning
D# G# C# F# A# D#
#----------------------------------PLEASE NOTE---------------------------------#
#This file is the author's own work and represents their interpretation of the #
#song. You may only use this file for private study, scholarship, or research. #
#------------------------------------------------------------------------------#

RETURN TO HANGAR 18 (Bassline)
As recorded by Megadeth
(From the 2001 Album THE WORLD NEEDS A HERO)

Transcribed by Fenian
	

Words and Music by Dave Mustaine

Gtr I (Eb Ab Db Gb) - 'Untitled'

    Q=185           1.,2.,3.           4.
   4/4
    Gtr I
    q  E E E E E E   E E E E E E q      E E E E H
||-----------------|-----------------||--------------||
||o----------------|----------------o||--------------||
||o----------------|----------------o||--------------||
||--0--0-0---0---0-|---0---0---0-0---||---0---0-3----||


    q  E E E E E E   E E E E E E q    q  E E E E E E   E E E E E E q
||-----------------|----------------|----------------|-----------------|
||o----------------|----------------|----------------|-----------------|
||o----------------|----------------|-3--3-3---3---3-|---3---3---3-3---|
||--0--0-0---0---0-|---0---0---0-0--|----------------|-----------------|


  q  E E E E E E   E E E E E E q    q  E E E E E E   E E E E Q  +Q
|----------------|----------------|----------------|------------------|
|----------------|----------------|----------------|------------------|
|----------------|----------------|----------------|------------------|
|-5--5-5---5---5-|---5---5---5-5--|-6--6-6---6---7-|---7---7-7--(7)\--|


  q  E E E E E E   E E E E E E q    q  E E E E E E   E E E E E E q
|----------------|----------------|----------------|----------------|
|----------------|----------------|----------------|----------------|
|----------------|----------------|-3--3-3---3---3-|---3---3---3-3--|
|-0--0-0---0---0-|---0---0---0-0--|----------------|----------------|


  q  E E E E E E   E E E E E E q    q  E E E E E E   E E E E Q  +Q
|----------------|----------------|----------------|------------------||
|----------------|----------------|----------------|------------------||
|----------------|----------------|----------------|------------------||
|-5--5-5---5---5-|---5---5---5-5--|-6--6-6---6---7-|---7---7-7--(7)\--||


  Q.   E E E Q    +E  E E E E E E E   Q.   E E E Q    +E  E E E E E E E
|---------------|-------------------|---------------|-------------------|
|---------------|-------------------|---------------|-------------------|
|-2----2-----2--|-(2)---------------|-1----1-----1--|-(1)---------------|
|--------3-0----|-----0---0---0---0-|--------3-0----|-----0---0---0---0-|


  Q.   E E E Q    +E  E E E E E E E   Q.   E E E Q    +E  E E E E E E E
|---------------|-------------------|---------------|-------------------|
|---------------|-------------------|---------------|-------------------|
|-2----2-----2--|-(2)---------------|-1----1-----2--|-(2)-0-----2-0-----|
|--------3-0----|-----0---0---0---0-|--------3-0----|-------3-2-----3-2-|


  Q.   E E E Q    +E  E E E E E E E   Q.   E E E Q    +E  E E E E E E E
|---------------|-------------------|---------------|-------------------|
|---------------|-------------------|---------------|-------------------|
|-2----2-----2--|-(2)---------------|-1----1-----1--|-(1)---------------|
|--------3-0----|-----0---0---0---0-|--------3-0----|-----0---0---0---0-|


  Q.   E E E Q    +E  E E E E E E E   Q.   E E E Q    +E  E E E E E E E
|---------------|-------------------|---------------|--------------------||
|---------------|-------------------|---------------|-------------------o||
|-2----2-----2--|-(2)---------------|-1----1-----2--|-(2)-0-----2-0-----o||
|--------3-0----|-----0---0---0---0-|--------3-0----|-------3-2-----3-2--||


    E E E E E E E E   E E E E E E E E   E E E E E E E E   E E E E E E E E
||------------------|-----------------|-----------------|------------------|
||o-----------------|-----------------|-----------------|------------------|
||o-----------------|-----------------|-3---3-3---3---3-|---3---3---3-3----|
||--0---0-0---0---0-|---0---0---0-0---|-----------------|------------------|


  E E E E E E E E   E E E E E E E E   E E E E E E E E   E E E E Q  +Q     4x
|-----------------|-----------------|-----------------|-------------------||
|-----------------|-----------------|-----------------|------------------o||
|-----------------|-----------------|-5---5-5---5---6-|---6---6-6--(6)\--o||
|-5---5-5---5---5-|---5---5---5-5---|-----------------|-------------------||


  W          +W           W          +W
|----------|------------|----------|------------|
|----------|------------|----------|------------|
|----------|------------|----------|------------|
|-0--------|-(0)--------|-0--------|-(0)--------|


  W          +W           W          +W
|----------|------------|----------|--------||
|----------|------------|----------|--------||
|----------|------------|----------|--------||
|-0--------|-(0)--------|-0--------|-(0)----||


  E E Q  H      H    Q  E E   W          H    E E E E
|-------------|-------------|----------|--------------|
|-------------|-------------|----------|--------------|
|-------------|-------------|----------|--------------|
|-0-----------|-----------3-|----------|--------3---3-|


  E E Q  H      H    Q  E E   E E Q  H      H    E E E E
|-------------|-------------|-------------|--------------|
|-------------|-------------|-------------|--------------|
|-------------|-------------|-------------|--------------|
|-0-----------|-----------3-|-0-----------|--------3---3-|


  H    H      H    H      H    H       H    H
|-----------|-----------|-----------|------------||
|-----------|-----------|-----------|------------||
|-----------|-----------|-----------|------------||
|-0----2----|-3----5----|-7----0----|-/8----7----||


  E E E E E E E E   E E E E E E E E   E E E E E E E E   E E E E E E E E
|-----------------|-----------------|-----------------|-----------------|
|-----------------|-----------------|-----------------|-----------------|
|-----------------|-----------------|-----------------|-----------------|
|-0-0-0-0-0-0-0-0-|-0-0-0-0-0-0-0-3-|-0-0-0-0-0-0-0-0-|-0-0-0-0-0-3---3-|


  E E E E E E E E   E E E E E E E E   E E E E E E E E   E E E E E E E E
|-----------------|-----------------|-----------------|-----------------|
|-----------------|-----------------|-----------------|-----------------|
|-----------------|-----------------|-----------------|-----------------|
|-0-0-0-0-0-0-0-0-|-0-0-0-0-0-0-0-3-|-0-0-0-0-0-0-0-0-|-0-0-0-0-0-3---3-|


  H    H      H    H      H    H       H    H
|-----------|-----------|-----------|------------|
|-----------|-----------|-----------|------------|
|-----------|-----------|-----------|------------|
|-0----2----|-3----5----|-7----0----|-/8----7----|


  E E E E E E E E   E E E E E E E E   E E E E E E E E   E E E E E E E E
|-----------------|-----------------|-----------------|-----------------|
|-----------------|-----------------|-----------------|-----------------|
|-----------------|-----------------|-----------------|-----------------|
|-0-0-0-0-0-0-0-0-|-0-0-0-0-0-0-0-3-|-0-0-0-0-0-0-0-0-|-0-0-0-0-0-3---3-|


  E E E E E E E E   E E E E E E E E   E E E E E E E E   E E E E E E E E
|-----------------|-----------------|-----------------|-----------------|
|-----------------|-----------------|-----------------|-----------------|
|-----------------|-----------------|-----------------|-----------------|
|-0-0-0-0-0-0-0-0-|-0-0-0-0-0-0-0-3-|-0-0-0-0-0-0-0-0-|-0-0-0-0-0-3---3-|


  H    H      H    H      H    H       H    H
|-----------|-----------|-----------|------------|
|-----------|-----------|-----------|------------|
|-----------|-----------|-----------|------------|
|-0----2----|-3----5----|-7----0----|-/8----7----|


  E E E E E E E E   E E E E E E E E   E E E E E E E E   E E E E E E E E
|-----------------|-----------------|-----------------|-----------------|
|-----------------|-----------------|-----------------|-----------------|
|-----------------|-----------------|-----------------|-----------------|
|-0-0-0-0-0-0-0-0-|-0-0-0-0-0-0-0-3-|-0-0-0-0-0-0-0-0-|-0-0-0-0-0-3---3-|


  E E E E E E E E   E E E E E E E E   E E E E E E E E   E E E E E E E E
|-----------------|-----------------|-----------------|-----------------|
|-----------------|-----------------|-----------------|-----------------|
|-----------------|-----------------|-----------------|-----------------|
|-0-0-0-0-0-0-0-0-|-0-0-0-0-0-0-0-3-|-0-0-0-0-0-0-0-0-|-0-0-0-0-0-3---3-|


  H    H      H    H      H    H       H    H
|-----------|-----------|-----------|------------|
|-----------|-----------|-----------|------------|
|-----------|-----------|-----------|------------|
|-0----2----|-3----5----|-7----0----|-/8----7----|


  E E E E E E E E   E E E E E E E E   E E E E E E E E   E E E E E E E E
|-----------------|-----------------|-----------------|-----------------|
|-----------------|-----------------|-----------------|-----------------|
|-----------------|-----------------|-----------------|-----------------|
|-0-0-0-0-0-0-0-0-|-0-0-0-0-0-0-0-3-|-0-0-0-0-0-0-0-0-|-0-0-0-0-0-3---3-|


  E E E E E E E E   E E E E E E E E   E E E E E E E E   E E E E E E E E
|-----------------|-----------------|-----------------|-----------------|
|-----------------|-----------------|-----------------|-----------------|
|-----------------|-----------------|-----------------|-----------------|
|-0-0-0-0-0-0-0-0-|-0-0-0-0-0-0-0-3-|-0-0-0-0-0-0-0-0-|-0-0-0-0-0-3---3-|


  H    H      H    H      H    H       H    H
|-----------|-----------|-----------|------------|
|-----------|-----------|-----------|------------|
|-----------|-----------|-----------|------------|
|-0----2----|-3----5----|-7----0----|-/8----7----|


  H    H      H    H      H    H       H    H      H    H
|-----------|-----------|-----------|------------|-----------*|
|-----------|-----------|-----------|------------|-----------*|
|-----------|-----------|-----------|------------|-----------*|
|-0----2----|-3----5----|-7----0----|-/8----7----|-0---------*|



Duration Legend
---------------
W - whole; H - half; Q - quarter; E - 8th; S - 16th; T - 32nd; X - 64th; a - acciaccatura
+ - note tied to previous; . - note dotted; .. - note double dotted
Uncapitalized letters represent notes that are staccato (1/2 duration)
Irregular groupings are notated above the duration line
Duration letters will always appear directly above the note/fret number it represents the
duration for.  Duration letters with no fret number below them represent rests.  Multi-
bar rests are notated in the form Wxn, where n is the number of bars to rest for.  Low
melody durations appear below the staff

Tablature Legend
----------------
 h   - hammer-on
 p   - pull-off
 b   - bend
 pb  - pre-bend
 r   - bend release (if no number after the r, then release immediately)
 /\  - slide into or out of (from/to "nowhere")
 s   - legato slide
 S   - shift slide
 - natural harmonic
[n]  - artificial harmonic
n(n) - tapped harmonic
 ~   - vibrato
 tr  - trill
 T   - tap
 TP  - trem. picking
 PM  - palm muting
\n/  - tremolo bar dip; n = amount to dip
 \n  - tremolo bar down
 n/  - tremolo bar up
/n\  - tremolo bar inverted dip
 =   - hold bend; also acts as connecting device for hammers/pulls
 <> - volume swell (louder/softer)
 x   - on rhythm slash represents muted slash
 o   - on rhythm slash represents single note slash

Misc Legend
-----------
 |  - bar
||  - double bar
||o - repeat start
o|| - repeat end
*|  - double bar (ending)
 :  - bar (freetime)
 $  - Segno
 &  - Coda
Tempo markers -  = BPM(8/16=s8/s16), where s8 = swing 8ths, s16 = swing 16ths

comments
We did not receive enough feedback on this tab! Please rate:
print report bad tab
1 2 3 4 5
I want to post or [tab]
guest
You may want to rate the tab now too:
select rating
Please do not post tabs as comments. Select "correction" instead!