Oops, an error
Loading. Please wait.

Scorpion Bass Tab

1,523 views 6 this week
no commentswrite comment
1 2 3 4 5
excellent!
x 1
add to favorites
launch autoscroll
font size
0
reset
guitar tuner
Tab Pro tools
  • play this tab
  • loop segment
  • change instrument
  • show fretboard
  • metronome
Autoscroll
slow
fast
+/-
esc
set tempo
stop
Contributor
Scorpion
perfomed by
Megadeth

Tuning: E,A,D,G

Intro (:14)
G|------------------------------------------|
D|------------------------------------------|
A|----------00-20---------------------------|
E|---------------320~-----2~-----0-0~-----2~|

(Strings) (:25)
G|-------------------------------|x3
D|-----2-5-2-5-2------2-4-2-4-2--|
A|---2--------------1------------|
E|-3--------------2--------------|

(:39)
G|--------------|
D|--------------|
A|-3--0--2------|
E|----------3-2-|

Verse (:41)
G|----------------------------------------|x4
D|----------------------------------------|
A|-----------------------------------5-43-|
E|-0-2-2----0-2-3----3-2-0----7-65--------|

Pre-Chorus (1:19)
G|------------------------------|x3
D|------------------------------|
A|-02-023-02-023-02-023-023-023-|
E|------------------------------|

Chorus (1:38)
G|----------------------------|x4
D|-2--2---24------------------|
A|------------33-333332023202-|
E|----------------------------|
Note: The chorus can be a little hard to follow. Just listen
carefully and get that rhythm down.

(2:06)
G|------------------------------------------|
D|------------------------------------------|
A|----------00-20---------------------------|
E|---------------320~-----2~-----0-0~-----2~|

(Strings) (2:17)
G|-------------------------------|x3
D|-----2-5-2-5-2------2-4-2-4-2--|
A|---2--------------1------------|
E|-3--------------2--------------|

(2:31)
G|--------------|
D|--------------|
A|-3--0--2------|
E|----------3-2-|

Verse (2:33)
G|-----------------------------------------|x4
D|-----------------------------------------|
A|-----------------------------------4b--3-|
E|-0-2-2----0-2-3----3-2-0----6b--5--------|

Pre-Chorus (3:11)
G|------------------------------|x3
D|------------------------------|
A|-02-023-02-023-02-023-023-023-|
E|------------------------------|

Chorus (3:30)
G|----------------------------|x4
D|-2--2---24------------------|
A|------------33-333332023202-|
E|----------------------------|
Bridge (3:49)
G|---------------------------|x3
D|-------24------------242---|
A|----------2b------------30-|
E|-2--2----------------------|

G|-------------------------------|
D|-------24------------242-------|
A|----------2b------------30320--|
E|-2--2------------------------2-|

Chorus (4:08)
G|----------------------------|x4
D|-2--2---24------------------|
A|------------33-333332023202-|
E|----------------------------|

Outro (4:27)
G|-----------------------------------------|x4
D|-----------------------------------------|
A|-----------------------------------4b--3-|
E|-0-2-2----0-2-3----3-2-0----6b--5--------|

G|----------------------------------------------|
D|----------------------------------------------|
A|--------------00-20---------------------------|
E|0~-----------------320~-----2~-----0-0~-----2~|

I hope I did this song justice. A few parts were difficult to hear it,
but I think I got most of it. Have fun and please rate well.


comments
We did not receive enough feedback on this tab! Please rate:
print report bad tab
1 2 3 4 5
I want to post or [tab]
guest
You may want to rate the tab now too:
select rating
Please do not post tabs as comments. Select "correction" instead!