Oops, an error
Loading. Please wait.

Scorpion Tab

version 1
version 1

Whole song

5,837 views 1 this week
4 commentsread comments
1 2 3 4 5
worth learning
x 7
add to favorites
launch autoscroll
font size
0
reset
how to read this tab
guitar tuner
Tab Pro tools
  • play this tab
  • loop segment
  • change instrument
  • show fretboard
  • metronome
×
Best way to learn
"Scorpion"
Autoscroll
slow
fast
+/-
esc
set tempo
stop
Contributor
----------------------------------------------------------------------------
                           The Scorpion-Megadeth
----------------------------------------------------------------------------
Tabbed By:Eddy Benton
E-Mail: t_borchers@hotmail.com

Tunning:EADGBE

If you listen to the song you will get the tempo and timing.

The whole song has distortion.

Intro 7x's
E-3h4-3-0-3h4-3-0-3h4-3-2h3-2-0-2h3-2-0-2h3-2-|
B---------------------------------------------|
G---------------------------------------------|
D---------------------------------------------|
A---------------------------------------------|
E---------------------------------------------|

After 2x's out of the 7x's, a 2nd guitar comes in and goes

**For the palm mutes pick at the 23rd fret when you do the palm mute causing the 
sound
E---------------------------------------------------------------|
B---------------------------------------------------------------|
G---------------------------------------------------------------|
D---------------------------------------------------------------|
A--------3-2----2------------------------4-----------------\\---|
E-0-0--0----3-2-0------------------------2-----------------\\---|
  ` `  `
E--------------------------------------------------------------------------|
B--------------------------------------------------------------------------|
G--------------------------------------------------------------------------|
D--------------------------------------------------------------------------|
A-2-2----------------------------------4------------------------------\\---|
E-0-0----------------------------------2------------------------------\\---|

Interlude
E------------|
B------------|
G------------|
D-5-2-4------|
A-3-0-2--5-4-|
E--------3-2-|
         ` `
Verse
E--------------------------------------------------------------------|
B--------------------------------------------------------------------|
G--------------------------------------------------------------------|
D------------------------------------------------------------7---5---|
A-2---4-2-2--2-222-2---5-2-2--2-222-5\4-2-2-2--2-222-9---7---5---3~~-|
E-0---2-2-2--2-222-0---3-2-2--2-222-3\2-2-2-2--2-222-7---5-----------|
        ` `  ` ```       ` `  ` ```     ` ` `  ` ```

Solo Rhythm  3x's
E--------------------------------------------------|
B--------------------------------------------------|
G--------------------------------------------------|
D-0h2-0h2h3p2p0h2—0h2h3----0h2-0h2h3p2p0h2h3—0h2h3-|
A--------------------------------------------------|
E--------------------------------------------------|

E----------------------------------------------------------|
B----------------------------------------------------------|
G-----------------------------------------4h3h2------------|
D--0h2-0h2h3p2p0h2—0h2h3----0h2-0h2h3p2p0-------4h3h2------|
A----------------------------------------------------4h3h2-|
E----------------------------------------------------------|

Solo 1
E--------------------------------------------------------------------------|
B--------------------------------------------------------------------------|
G---4-----7\\-2~~------6p5p4-6p5p4-----------------------------------------|
D------0--------------------------7p6p5-7p6p5------------------------------|
A-2------------------------------------------7p6p5-7p6p5-------------------|
E-------------------))))--------------------------------7p6p5-7p6p5~~~~~~~-|

E------------------------------------------------6-3-8-5-10-7-12-|
B----------------------------------------7-4—--------------------|
G--------------------4----------7-4—-----------------------------|
D----------------------0-----------------------------------------|
A-----------------2------3~~-------------------------------------|
E-5~5~5~5~5~-----------------------------------------------------|

E----------------------------------------------|
B-6h7p6h7p6-3h4p3h4p3--------------------------|
G--------------------3h4p3h4p4-----------------|
D-----------------------------3h4p3h4p3--------|
A--------------------------------------3~~~----|
E----------------------------------------------|

Chorus  4x's
E-----0-------------------------------------------|
B-----0-------------------------------------------|
G------------------9\\-5--------------------------|
D------------------7\\-3--3-3-3-3-2-3-2-0-2-3-2-0-|
A-2------2-2--2-----------------------------------|
E-0------2-2--2-----------------------------------|
  `      ` `  `           ` ` ` ` ` ` ` ` ` ` ` `

Bridge 7x's
E-3h4-3-0-3h4-3-0-3h4-3-2h3-2-0-2h3-2-0-2h3-2-|
B---------------------------------------------|
G---------------------------------------------|
D---------------------------------------------|
A---------------------------------------------|
E---------------------------------------------|

After 2x's out of the 7x's, a 2nd guitar comes in and goes...

**For the palm mutes pick at the 23rd fret when you do the palm mute causing the 
sound.
E---------------------------------------------------------------|
B---------------------------------------------------------------|
G---------------------------------------------------------------|
D---------------------------------------------------------------|
A--------3-2----2------------------------4-----------------\\---|
E-0-0--0----3-2-0------------------------2-----------------\\---|
  ` `  `
E--------------------------------------------------------------------------|
B--------------------------------------------------------------------------|
G--------------------------------------------------------------------------|
D--------------------------------------------------------------------------|
A-2-2----------------------------------4------------------------------\\---|
E-0-0----------------------------------2------------------------------\\---|

Interlude
E------------|
B------------|
G------------|
D-5-2-4------|
A-3-0-2--5-4-|
E--------3-2-|
         ` `
Verse
E--------------------------------------------------------------------|
B--------------------------------------------------------------------|
G--------------------------------------------------------------------|
D------------------------------------------------------------7---5---|
A-2---4-2-2--2-222-2---5-2-2--2-222-5\4-2-2-2--2-222-9---7---5---3~~-|
E-0---2-2-2--2-222-0---3-2-2--2-222-3\2-2-2-2--2-222-7---5-----------|
        ` `  ` ```       ` `  ` ```     ` ` `  ` ```

Solo Rhythm 3x's
E--------------------------------------------------|
B--------------------------------------------------|
G--------------------------------------------------|
D-0h2-0h2h3p2p0h2—0h2h3----0h2-0h2h3p2p0h2h3—0h2h3-|
A--------------------------------------------------|
E--------------------------------------------------|

E----------------------------------------------------------|
B----------------------------------------------------------|
G-----------------------------------------4h3h2------------|
D--0h2-0h2h3p2p0h2—0h2h3----0h2-0h2h3p2p0-------4h3h2------|
A----------------------------------------------------4h3h2-|
E----------------------------------------------------------|

Solo 2
I did not feel like taking the time to do this solo but if anyone wants me to I could.

Chorus  4x's
E-----0-------------------------------------------|
B-----0-------------------------------------------|
G------------------9\\-5--------------------------|
D------------------7\\-3--3-3-3-3-2-3-2-0-2-3-2-0-|
A-2------2-2--2-----------------------------------|
E-0------2-2--2-----------------------------------|
  `      ` `  `           ` ` ` ` ` ` ` ` ` ` ` `

Solo Rhythm 4x's
E----2------------------------------------------------|
B----2------------------------------------------------|
G------------------13\\-5-----------------------3-----|
D------------------10\\-3------------------3-4---4-3--|
A-4------2-2--2---------------------------------------|
E-2------2-2--2---------------------------------------|
         ` `  `
Same Deal with the solo that is here also.

Chorus 4x's
E-----0-------------------------------------------|
B-----0-------------------------------------------|
G------------------9\\-5--------------------------|
D------------------7\\-3--3-3-3-3-2-3-2-0-2-3-2-0-|
A-2------2-2--2-----------------------------------|
E-0------2-2--2-----------------------------------|
  `      ` `  `           ` ` ` ` ` ` ` ` ` ` ` `


Outro 3x's
E-3h4-3-0-3h4-3-0-3h4-3-2h3-2-0-2h3-2-0-2h3-2-|
B---------------------------------------------|
G---------------------------------------------|
D---------------------------------------------|
A---------------------------------------------|
E---------------------------------------------|

After 2x's out of the 7x's, a 2nd guitar comes in and goes...

**For the palm mutes pick at the 23rd fret when you do the palm mute causing the 
sound.
E---------------------------------------------------------------|
B---------------------------------------------------------------|
G---------------------------------------------------------------|
D---------------------------------------------------------------|
A--------3-2----2------------------------4-----------------\\---|
E-0-0--0----3-2-0------------------------2-----------------\\---|
  ` `  `
E--------------------------------------------------------------------------|
B--------------------------------------------------------------------------|
G--------------------------------------------------------------------------|
D--------------------------------------------------------------------------|
A-2-2----------------------------------4------------------------------\\---|
E-0-0----------------------------------2------------------------------\\---|

(  = Pick Scratch
`  = Palm Mute
h  = Hammer-on
p  = Pull-off
\  = Slide Down
/  = Slide Up
comments
print report bad tab
4 comments total. Showing first comments.
0 reply
digity wrote on November 10 2004, 12:00 am

this tab really helped alot. there was only a couple of parts i couldn't figure out on my own. and this is THE most accurate tab of the song out there!! thanks Eddy!

+1 reply
Space #6 wrote on December 1 2004, 12:00 am

There is nothing right in this tab! Anyone who thinks it is, is wrong! The guy who thinks this is accurate is Tone Deaf.

Intro:

e|-0h7-------0h7-------0h7----|
B|-----8---------8---------8--|
G|--------9---------9---------|
D|----------------------------|
A|----------------------------|
E|----------------------------|

e|-0h6-------0h6-------0h6---|
B|-----7---------7---------7-|
G|--------9---------9--------|
D|---------------------------|
A|---------------------------|
E|---------------------------|

Then there is this riff before the lead in to the verse

e|------------------------------|
B|------------------------------|
G|------------------------------|
D|-------5-2-5-2--------4-2-4-2-|
A|-----2--------------1---------|
E|-0-3------------0-2-----------|


Verse lead in:

e|-----------------|
B|-----------------|
G|-----------------|
D|---5---2---4-----|
A|-3---0---2---5-4-|
E|-------------3-2-|


Verse:

e|--------------------------------------------|
B|--------------------------------------------|
G|--------------------------------------------|
D|--------------------------------------------|
A|-2--4-4--x-x--x-x-x-x--2--4-5--x-x--x-x-x-x-|
E|-0--2-2--x-x--x-x-x-x--0--2-3--x-x--x-x-x-x-|

e|---------------------------------------|
B|---------------------------------------|
G|---------------------------------------|
D|-----------------------1-------4-------|
A|-5--4-2--x-x--x-x-x-x--2--1-0--5--4-3~-|
E|-3--2-0--x-x--x-x-x-x------------------|


Chorus:

e|-----0-------------------------------------------|
B|-----0-------------------------------------------|
G|-------------------------------------------------|
D|----------------7/9\--5--------------------------|
A|-2--(2)--x-x--x-5/7\--3--3-3-3-3-3-3-2-0-2-3-2-0-|
E|-0--(0)--x-x--x----------------------------------|

This is right!

0 reply
Texan wrote on April 22 2006, 01:15 pm

Not accurate

I want to post or [tab]
guest
You may want to rate the tab now too:
select rating
Please do not post tabs as comments. Select "correction" instead!