Oops, an error
Loading. Please wait.

Seven Bass Tab

version 1
version 1

Whole song

Interactive

418 views 1 this week
no commentswrite comment
1 2 3 4 5
please rate
add to favorites
launch autoscroll
font size
0
reset
guitar tuner
Autoscroll
slow
fast
+/-
esc
set tempo
stop
Help us to improve Ultimate-Guitar.com Take our survey!
×
This tab was transcribed bt creepingdeth66 from tTabs.

        Full of greed...
G:------|----------------------------------------------------|r
D:------|----------------------------------------------------|e
A:-177--|----------------------------------------------------|s
E:------|-0--10-9-10-10-0--0--10-9-10-10-0--0--10-9-10-10-0--|t

---------------------------------------------------r----------------r-----------------|r
---------------------------------------------------e----------------e-----------------|e
---------------------------------------------------s----------------s-----------------|s
-0--10-9-10-10-0--0--10-9-10-10-0--0--10-9-10-10-0-t-0-10-9-10-10-0-t-0-10-9-10-10-0--|t

------------------------------------------------|-------------|
------------------------------------------------|-------------|
------------------------------------------------|-------------|
-0-10-9-10-10-0--0-10-9-10-10-0--0-10-9-10-10-0-|-1-1-2-2-3-3-|

|------------|-------------|---------------------------------|
|------------|-------------|-------------------------9-7-----|
|------------|-------------|---------------------5-7-----9-7-|
|1-1-2-2-3-3-|-5-5-5-5-5-5-|-7-7-7-7-7-7-7-7--7--------------|


Deep fears that drive us...
------------------------------------------------------------------------------------------------|
------------------------------------------------------------------------------------------------|
------------------------------------------------------------------------------------------------|
-0-2-3-5-3--0-0--0-0-0--0-0----7-5-3-5-3--0-0--0-0-0--0-0--10-7-5-7-5--3-3--3-3-3--3-3--0-2-3-5-|

----------------r----------------r------------------------------------------------------------|r
----------------e----------------e------------------------------------------------------------|e
----------------s----------------s------------------------------------------------------------|s
-0-10-9-10-10-0-t-0-10-9-10-10-0-t-0-0-0-0-0--10-9-10-10-0--0--10-9-10-10-0--0--10-9-10-10-0--|t

---------------------------------------------------r----------------r-----------------|r
---------------------------------------------------e----------------e-----------------|e
---------------------------------------------------s----------------s-----------------|s
-0--10-9-10-10-0--0--10-9-10-10-0--0--10-9-10-10-0-t-0-10-9-10-10-0-t-0-10-9-10-10-0--|t

------------------------------------------------|-----|---------|---------------------------------|
------------------------------------------------|-----|---------|-------------------------9-7-----|
------------------------------------------------|-----|---------|---------------------5-7-----9-7-|
-0-10-9-10-10-0--0-10-9-10-10-0--0-10-9-10-10-0-|-2-2-|-5-5-5-5-|-7-7-7-7-7-7-7-7--7--------------|

Deep fears that drive us...
---------------------------------------------------------------------------------------|
---------------------------------------------------------------------------------------|
---------------------------------------------------------------------------------------|
-0-2-3-5-3--0-0--0-0-0--0-0----7-5-3-5-3--0-0--0-0-0--0-0--10-7-5-7-5--3-3--3-3-3--3-3-|

--------------------------------------------------------------------------------------------------|
--------------------------------------------------------------------------------------------------|
--------------------------------------------------------------------------------------------------|
0-2-3-5-0-2-3-5-3-0-0-0-0-0-0---7-5-3-5-3--0-0--0-0-0--0-0---10-7-5-7-5--3-3--3-3-3--3-3---0-2-3-5|

----------------------------|-----------|-----------|-------|---|
----------------------------|-----------|-----------|-------|---|
-------2--------------------|-----3-----|-----5-----|-------|---|
-2-4-5---5--2-2--2-2-2--2-2-|-5-5---3-5-|-7-7---5-7-|-0-0-7-|-7-|

Ending
|--------------------------------------------------------------------------------|
|--------------------------------------------------------------------------------|
|--------------------------------------------------------------------------------|
|-12-12-12--12-12-12--12-12-12--12-12-12--1O-1O-1O--1O-1O-1O--1O-1O-1O--1O-1O-1O-|

--------------------------------------------------------|
--------------------------------------------------------|
--------------------------------------------------------|
-5-5-5--5-5-5--3-3-3--3-3-3--0-0-0--0-0-0--0-0-0--0-0-0-|

|---------------------------------------------|
|---------------------------------------------|
|---------------------------------------------|
|-10-10-10--5-5-5--0-0-0--0-0-0--0-0-0--0-0-0-|

|----------|
|----------|
|----------|
|-10--5--0-|
Suggest correction
Give kudos to tab author, rate the tab!
1 2 3 4 5
comments
print report bad tab
guest
You may want to rate the tab now too:
select rating
Wanna post a correction for this tab? Suggest correction