Oops, an error
Loading. Please wait.

Shadow Of Deth Tab

version 1
version 1

Whole song

Interactive

3,227 views 1 this week
3 commentsread comments
1 2 3 4 5
accurate
x 5
add to favorites
launch autoscroll
font size
0
reset
how to read this tab
guitar tuner
Tab Pro tools
  • play this tab
  • loop segment
  • change instrument
  • show fretboard
  • metronome
×
Best way to learn
"Shadow Of Deth"
Autoscroll
slow
fast
+/-
esc
set tempo
stop
Contributor
-------------------------------------------------------------------------------
                         Shadow of Deth - Megadeth
-------------------------------------------------------------------------------
Tabbed by: Kornfreak4 (Metalman4415)
Email:goalieman4444@yahoo.com

Tuning: Standard

Im not sure if i have the beginning right but i know the rest is, and this is my first
tab so email me or IM me (metalman4415) if u got a problem.

e|---------------------------------------------------------------------------|
B|---------------------------------------------------------------------------|
G|---------------------------------------------------------------------------|
D|---------------------------------------------------------------------------|
A|---------------------------------------------------------------------------|
E|------7-4-5-6-7-4-5-6-7-4-5-6-7-X a few--------same as ending--------------|

Then solo part
e|----------------------------------------------------------------------|
B|----------------------------------------------------------------------|
G|----------10-9----9-10--------10-9----10-9------------10-9----9-10----|
D|-------12------12----------12------12------12------12------12---------|
A|----12------------------12----------------------12--------------------|
E|----------------------------------------------------------------------|

e|---------------------------------------------------------------------------|
B|---------------------------------------------------------------------------|
G|----------10-12-10-9-10--------------10-9----9-10------10-9---10-9---------|
D|-------12---------------12---------12-----12---------12-----12-----12------|
A|----12---------------------12----12----------------12----------------------|
E|---------------------------------------------------------------------------|

e|---------------------------------------------------------------------------|
B|---------------------------------------------------------------------------|
G|--------10-9---9-10-------10-(12)(10)(9)(7)(10)(9)(7)(5)-------------------|
D|------12-----12---------12-------------------------------------------------|
A|----12----------------12---------------------------------------------------|
E|---------------------------------------------------------------------------|

e|---------------------------------------------------------------------------|
B|---------------------------------------------------------------------------|
G|--------12-11---11-12------12-11---12-11-----------------------------------|
D|------14------14---------14-----14-------14--------------------------------|
A|----14-----------------14--------------------------------------------------|
E|---------------------------------------------------------------------------|

e|---------------------------------------------------------------------------|
B|---------------------------------------------------------------------------|
G|--------12-11---11-12--------12-14-12-11-12-----------12-11---11-12--------|
D|------14------14-----------14---------------14------14------14-------------|
A|----14-------------------14-----------------------14-----------------------|
E|---------------------------------------------------------------------------|

e|---------------------------------------------------------------------------|
B|---------------------------------------------------------------------------|
G|--------12-11---12-11----------12-11---12-12-------------------------------|
D|------14-----14-------14-----14-----14-------------------------------------|
A|----14---------------------14----------------------------------------------|
E|---------------------------------------------------------------------------|

e|--------------------------------------------|----13-12---12-13-------------|
B|--------------------------------------------|10-15-----15------------------|
G|--------12-(14)(12)(11)(9)(12)(11)(9)(7)----|------------------------------|
D|------14------------------------------------|-play this twice when higher--|
A|----14--------------------------------------|-part comes in----------------|
E|--------------------------------------------|------------------------------|

e|---------13-12----13-12------------13-12---12-13---------13-15-13-12-13---|
B|----10-15------15-------15----10-15------15---------10-15--------------15-|
G|--------------------------------------------------------------------------|
D|--------------------------------------------------------------------------|
A|--------------------------------------------------------------------------|
E|--------------------------------------------------------------------------|

e|---------17-16---16-17--------17-16---17-16------------17-16---16-17-------|
B|----14-19------19--------14-19------19------19----14-19------19------------|
G|---------------------------------------------------------------------------|
D|------------------------^------^-----^----------^--------------------------|
A|--------------------higher part played with part in brackets---------------|
E|---------------------------------------------------------------------------|

e|----------13-(15)(13)(12)(10)(13)(12)(10)(8)(10)---------------------------|
B|----10-15------------------------------------------------------------------|
G|---------------------------------------------------------------------------|
D|--------------------------------------------------------then same as-------|
A|---------------------------------------------------------beginning---------|
E|---------------------------------------------------------------------------|


| /  slide up
| \  slide down
| h  hammer-on
| p  pull-off
| ~  vibrato
| +  harmonic
| x  Mute note
comments
print report bad tab
3 comments total.
0 reply
grave wrote on November 23 2004, 12:00 am

beggining riff is wrong and wheres ther solo during the beggining riff(better not copy mine)

0 reply
lostherox__-=_ wrote on May 15 2005, 12:00 am

Beginning riff is wrong but rest seems pretty much right to me.

0 reply
Muesli wrote on July 4 2008, 12:12 am

lovin it
this is Awesumness

I want to post or [tab]
guest
You may want to rate the tab now too:
select rating
Please do not post tabs as comments. Select "correction" instead!