Oops, an error
Loading. Please wait.

She Wolf Rude Awakening Bass Tab

version 1
version 1

Whole song

Interactive

1,442 views 1 this week
no commentswrite comment
1 2 3 4 5
please rate
add to favorites
launch autoscroll
font size
0
reset
guitar tuner
Tab Pro tools
  • play this tab
  • loop segment
  • change instrument
  • show fretboard
  • metronome
×
Best way to learn
"She Wolf Rude Awakening"
Autoscroll
slow
fast
+/-
esc
set tempo
stop
Contributor
#----------------------------------PLEASE NOTE---------------------------------#
#This file is the author's own work and represents their interpretation of the #
#song. You may only use this file for private study, scholarship, or research. #
#------------------------------------------------------------------------------#

SHE-WOLF (RUDE AWAKENING) (Bassline) 
As recorded by Megadeth
(From the 2002 Album RUDE AWAKENING)

Transcribed by livingzombie
	

Words and Music by Dave Mustaine

Gtr I (E A D G) - 'David Ellefson'

 Intro        Verse
  Fast Rock Q=180
 4/4
  Gtr I
  Wx4          Wx18
|------------|---------|
|------------|---------|
|------------|---------|
|------------|---------|


   Verse
    $
    E S S E E S S E E S S   E E S S E S S E S S E  4x
||------------------------|------------------------||
||o-----------------------|-----------------------o||
||o-----------------------|-----------------------o||
||--0-0-0-0-0-0-0-0-0-0-0-|-0-0-0-0-0-0-0-0-0-0-0--||


                          |-3-|                    |-3--| |-3-|
  Q.   Q.   Q    +E  Q.   Q Q Q   Q.   E E E Q    +Q  Q Q Q Q Q
|--------------|----------------|---------------|---------------|
|--------------|----------------|---------------|---------------|
|-3----3----3--|-(3)-3----3-1-2-|-3----1---2-3--|-(3)-1-2-3-1-2-|
|--------------|----------------|---------------|---------------|


  E S S E E S S E E S S   E E S S E S S E S S E
|-----------------------|-----------------------|
|-----------------------|-----------------------|
|-3-3-3-3-3-3-3-3-3-3-3-|-3-3-3-3-3-3-3-3-3-3-3-|
|-----------------------|-----------------------|


                          |-3-|                    |-3--| |-3-|
  Q.   Q.   Q    +E  Q.   Q Q Q   Q.   E E E Q    +Q  Q Q Q Q Q
|--------------|----------------|---------------|---------------|
|--------------|----------------|---------------|---------------|
|-3----3----3--|-(3)-3----3-1-2-|-3----1---2-3--|-(3)-1-2-3-2-1-|
|--------------|----------------|---------------|---------------|


  E E E E E E E E   E E E E E E E E   +E  E E E E E E E   +E  E E E E E E E
|-----------------|-----------------|-------------------|--------------------||
|-----------------|-----------------|-------------------|--------------------||
|-----------------|-----------------|-----------------6-|-(6)-6-6-6-6-6-6-3--||
|-3-3-3-3-3-3-3-3-|-3-3-3-3-3-3-3-1-|-(1)-1-1-1-1-1-1---|--------------------||


   Chorus
    +E  E E E E E E E   +E  E E E E E E E
||--------------------|-------------------|
||o-------------------|-------------------|
||o-(3)-3-3-3-3-3-3-1-|-(1)-1-1-1-1-1-1---|
||--------------------|-----------------1-|


  +E  E E E E E E E   +E  E E E E E E E
|-------------------|-------------------|
|-------------------|-------------------|
|-----------------6-|-(6)-6-6-6-6-6-6-3-|
|-(1)-1-1-1-1-1-1---|-------------------|


  +E  E E E E E E E   +E  E E E E E E E
|-------------------|-------------------|
|-------------------|-------------------|
|-(3)-3-3-3-3-3-3-1-|-(1)-1-1-1-1-1-1---|
|-------------------|-----------------1-|


                      1.
  +E  E E E E E E E   +E  E E E E Q  E
|-------------------|--------------------||
|-------------------|-------------------o||
|-------------------|-------------1--3--o||
|-(1)-1-1-1-1-1-1-3-|-(3)-3-3-3-3--------||


                    Bridge
  2.
            D.S.
  E E E E Q  Q       W          E E E E E E E E
|----------------||-----------|-----------------|
|----------------||o----------|-----------------|
|---------1--5\--||o-3--------|-3-3-3-3-3-3-3-1-|
|-3-3-3-3--------||-----------|-----------------|


  +W           E E E E E E E E
|------------|-------------------|
|------------|-------------------|
|-(1)--------|-1-1-1-1-1-1-1-----|
|------------|---------------4---|


  +W           E E E E E E E E   +H     E E E E
|------------|-----------------|----------------|
|------------|-----------------|----------------|
|------------|-----------------|--------------1-|
|-(4)--------|-4-4-4-4-4-4-4-3-|-(3)----3-3-3---|


                    Solo
  +H     E E E E     +E  E E E E E E E   E E E E E E E E
|-----------------||-------------------|-----------------|
|----------------o||-------------------|-----------------|
|-(1)------2---3-o||-(3)-3-3-3-3-3-3-3-|-3-3-3-3-3-3-3-1-|
|-----------------||-------------------|-----------------|


  +E  E E E E E E E   E E E E E E E E   E E E E E E E E   E E E E E E E E
|-------------------|-----------------|-----------------|------------------|
|-------------------|-----------------|-----------------|------------------|
|-(1)-1-1-1-1-1-1-1-|-1-1-1-1-1-1-1-1-|-----------------|------------------|
|-------------------|-----------------|-4-4-4-4-4-4-4-4-|-4-4-4-4-4-4-4-3--|


  +E  E E E E E E E   +E  E E E E E E E   +E  E E E E E E E   E E E E E E E E
|-------------------|-------------------|-------------------|------------------|
|-------------------|-------------------|-------------------|------------------|
|-----------------1-|-(1)-1-1-1-1-2---3-|-(3)-3-3-3-3-3-3-3-|-3-3-3-3-3-3-3-1--|
|-(3)-3-3-3-3-3-3---|-------------------|-------------------|------------------|


  +E  E E E E E E E   E E E E E E E E   E E E E E E E E   E E E E E E E E
|-------------------|-----------------|-----------------|------------------|
|-------------------|-----------------|-----------------|------------------|
|-(1)-1-1-1-1-1-1-1-|-1-1-1-1-1-1-1-1-|-----------------|------------------|
|-------------------|-----------------|-4-4-4-4-4-4-4-4-|-4-4-4-4-4-4-4-3--|


  +E  E E E E E E E   +E  E E E E E E E
|-------------------|-------------------|
|-------------------|-------------------|
|-----------------1-|-(1)-1-1-1-1-2---3-|
|-(3)-3-3-3-3-3-3---|-------------------|


    +E  E E +E  E E E E   +E  E E +E  E E E E
||----------------------|----------------------|
||o---------------------|----------------------|
||o-(3)-3-3-(3)-3-3-3-3-|-(3)-3-3-(3)-3-3-3-3--|
||----------------------|----------------------|


  +E  E E +E  E E E E   +E  E E +E  Q  E E
|---------------------|--------------------|
|---------------------|--------------------|
|-(3)-3-3-(3)-3-3-3-3-|-(3)-3-------1--2-3-|
|---------------------|-------3-(3)--------|


  +E  E E +E  E E E E   +E  E E +E  E E E E
|---------------------|----------------------|
|---------------------|----------------------|
|-(3)-3-3-(3)-3-3-3-3-|-(3)-3-3-(3)-3-3-3----|
|---------------------|-------------------3--|


  +E  E E +E  E E E E   +E  E E +E  E Q  E  3x
|---------------------|---------------------||
|---------------------|--------------------o||
|-------------------1-|-(1)-1-1-(1)-1-2--3-o||
|-(3)-3-3-(3)-3-3-3---|---------------------||


  +E  E E +E  Q  +E  E   +E  E E +E  E E E E
|----------------------|---------------------|
|----------------------|---------------1-3---|
|-(3)-3-3-(3)-3--(3)-3-|-(3)-3-3-(3)-3-----3-|
|----------------------|---------------------|


  +E  E E +E  Q  +E  E   +E  E E +E  E E E E
|----------------------|----------------------|
|----------------------|---------------3-5----|
|-(3)-3-3-(3)-3--(3)-3-|-(3)-3-3-(3)-3-----3--|
|----------------------|----------------------|


  +E  E E +E  Q  +E  E   +E  E Q  Q  E E   +Q   Q  E E E E   +Q   Q  E Q  E
|----------------------|-----------------|---------------3-|-(3)--3--3-4--5--|
|----------------------|-------0--1--3-5-|-(5)--5--5-5-5---|-----------------|
|-(3)-3-3-(3)-3--(3)-3-|-(3)-3-----------|-----------------|-----------------|
|----------------------|-----------------|-----------------|-----------------|


  +Q   Q  E Q  E   +E  Q  Q  E E E   +Q   Q  E Q  E   +E  Q  Q  E E E
|-(5)--3---------|-----------------|----------------|------------------|
|---------5-4--3-|-(3)-1-----------|----------------|------------------|
|----------------|--------3--1-2-3-|-(3)--1---------|-----------0-1-3--|
|----------------|-----------------|---------3-2--1-|-(1)-2--3---------|


  +Q   Q  E E E E   +Q   Q  E E E E
|-----------------|-----------------|
|-----------------|-----------------|
|-(3)--1--3-0-1-3-|-(3)--1--3-1-0---|
|-----------------|---------------3-|


  +E  E E +E  E E E E   +E  E E +E  E Q  E
|---------------------|---------------------||
|---------------------|---------------------||
|-------------------1-|-(1)-1-1-(1)-1-2--3--||
|-(3)-3-3-(3)-3-3-3---|---------------------||


    +E  E E +E  E E E E   +E  E E +E  E E E E
||----------------------|---------------------|
||o---------------------|---------------------|
||o-(3)-3-3-(3)-3-3-3-3-|-(3)-3-3-(3)-3-3-3-3-|
||----------------------|---------------------|


  +E  E E +E  E E E E   +E  E E +E  Q  E E
|---------------------|--------------------|
|---------------------|--------------------|
|-(3)-3-3-(3)-3-3-3-3-|-(3)-3-------1--2-3-|
|---------------------|-------3-(3)--------|


  +E  E E +E  E E E E   +E  E E +E  E E E E
|---------------------|---------------------|
|---------------------|---------------------|
|-(3)-3-3-(3)-3-3-3-3-|-(3)-3-3-(3)-3-3-3---|
|---------------------|-------------------3-|


  +E  E E +E  E E E E   +E  E E +E  E Q  E
|---------------------|----------------------||
|---------------------|---------------------o||
|-------------------1-|-(1)-1-1-(1)-1-2--3--o||
|-(3)-3-3-(3)-3-3-3---|----------------------||


  +E  E E +E  E E E E   +E  E E +E  E E E E
|---------------------|---------------------|
|---------------------|---------------------|
|-(3)-3-3-(3)-3-3-3-3-|-(3)-3-3-(3)-3-3-3-3-|
|---------------------|---------------------|


  E E E +E  E E E E   +E  E E +E  Q  E E
|-------------------|---------------------|
|-------------------|---------------------|
|-3-3-3-(3)-3-3-3-3-|-(3)-3-------1--2-3--|
|-------------------|-------3-(3)---------|


  +E  E E +E  E E E E   +Q   Q  Q  E E   +Q   Q  E E E E   +Q   E E E E E E
|---------------------|----------------|-----------------|-------------------||
|---------------------|------0--1--3-5-|-(5)--5--5-5-5---|-------------------||
|-(3)-3-3-(3)-3-3-3-3-|-(3)------------|---------------1-|-(1)--1-1-1-2---3--||
|---------------------|----------------|-----------------|-------------------||


  +Q   H.        +H.      +E  E   +Q   H.        +E  E E +E  Q  E E
|--------------|----------------|--------------|---------------------|
|--------------|----------------|--------------|---------------------|
|-(3)--3-------|-(3)------(3)-3-|-(3)--3-------|-(3)-3-------1--2-3--|
|--------------|----------------|--------------|-------3-(3)---------|


  +Q   H.        +H.      +E  E   +Q   H    +E  E   +Q   Q.   E E E
|--------------|----------------|-----------------|------------------|
|--------------|----------------|-----------------|------------------|
|-(3)--3-------|-(3)------(3)---|---------------1-|-(1)--1----2---3--|
|--------------|--------------3-|-(3)--3----(3)---|------------------|


  +Q   H.        +E  E E +E  Q  E E   +Q   H.
|--------------|--------------------|--------------|
|--------------|--------------------|--------------|
|-(3)--3-------|-(3)-3-------1--2-3-|-(3)--3-------|
|--------------|-------3-(3)--------|--------------|


  +H.      +E  E   +Q   H.        +E  E E +E  Q  E E
|----------------|--------------|--------------------|
|----------------|--------------|--------------------|
|-(3)------(3)-3-|-(3)--3-------|-(3)-3-------1--2-3-|
|----------------|--------------|-------3-(3)--------|


  +Q   H.        +E  E Q  Q  E E   +Q   Q  E E E E   +Q   Q  E Q  E
|--------------|-----------------|---------------3-|-(3)--3--3-4--5--|
|--------------|-------0--1--3-5-|-(5)--5--5-5-5---|-----------------|
|-(3)--3-------|-(3)-3-----------|-----------------|-----------------|
|--------------|-----------------|-----------------|-----------------|


  +Q   Q  E Q  E   +E  Q  Q  E E E
|-(5)--3---------|-----------------|
|---------5-4--3-|-(3)-1-----------|
|----------------|--------3--1-2-3-|
|----------------|-----------------|


  +E  E E +E  E E E E   +E  E E +E  E E E E
|---------------------|----------------------|
|---------------------|----------------------|
|-(3)-3-3-(3)-3-3-3-3-|-(3)-3-3-(3)-3-3-3-3--|
|---------------------|----------------------|


  +E  E E +E  E E E E   +E  E E +E  Q  E E
|---------------------|--------------------|
|---------------------|--------------------|
|-(3)-3-3-(3)-3-3-3-3-|-(3)-3-------1--2-3-|
|---------------------|-------3-(3)--------|


  +E  E E +E  E E E E   +E  E E +E  E E E E
|---------------------|----------------------|
|---------------------|----------------------|
|-(3)-3-3-(3)-3-3-3-3-|-(3)-3-3-(3)-3-3-3-3--|
|---------------------|----------------------|


  Q.   Q.   Q    +E  Q.   Q  Q    E E E E E E E E   E E E E E E E E
|--------------|----------------|-----------------|------------------|
|--------------|----------------|-----------------|------------------|
|--------------|----------1--2--|-3-3-3-3-3-3-3-3-|-3-3-3-3-3-3-3-3--|
|-3----3----3--|-(3)-3----------|-----------------|------------------|


  E E E E E E E E   E E E E E E E E   E E E E E E E E   E E E E E E E E
|-----------------|-----------------|-----------------|------------------|
|-1-1-1-1-1-1-1-1-|-1-1-1-1-1-1-1-1-|-----------------|------------------|
|-----------------|-----------------|-----------------|------------------|
|-----------------|-----------------|-4-4-4-4-4-4-4-4-|-4-4-4-4-4-4-4-4--|


  H     H      W           E E E E E E E E   E E E E E E E E
|------------|----------||-----------------|-----------------|
|------------|----------||-0-0-0-0-0-0-0-0-|-0-0-0-0-0-0-0-0-|
|------------|----------||-----------------|-----------------|
|-6\---------|----------||-----------------|-----------------|


  E E E E E E E E   E E E E E E E E   E E E E E E E E   E E E E E E E E
|-----------------|-----------------|-----------------|-----------------|
|-3-3-3-3-3-3-3-3-|-3-3-3-3-3-3-3-3-|-----------------|-----------------|
|-----------------|-----------------|-1-1-1-1-1-1-1-1-|-1-1-1-1-1-1-1-1-|
|-----------------|-----------------|-----------------|-----------------|


  E E E E E E E E   E E E E E E E E    E E E E E E E E   E E E E E E E E
|-----------------|-----------------||-----------------|------------------|
|-----------------|-----------------||-----------------|------------------|
|-3-3-3-3-3-3-3-3-|-3-3-3-3-3-1-2-3-||-----------------|------------------|
|-----------------|-----------------||-0-0-0-0-0-0-0-0-|-0-0-0-0-0-0-0-0--|


  E E E E E E E E   E E E E E E E E   E E E E E E E E   E E E E E E E E
|-----------------|-----------------|-----------------|-----------------|
|-----------------|-----------------|-----------------|-----------------|
|-----------------|-----------------|-----------------|-----------------|
|-3-3-3-3-3-3-3-3-|-3-3-3-3-3-3-3-3-|-5-5-5-5-5-5-5-5-|-5-5-5-5-5-5-5-5-|


  Q.   Q.   Q    +E  Q.   Q  Q    E H..         W
|--------------|----------------|-------------|------|
|--------------|----------0--1--|-2-----------|------|
|-0----2----3--|-(3)-4----------|-------------|------|
|--------------|----------------|-------------|------|


    E E E E E E E E   E E E E E E E E   +E  E E E E E E E   E E E E E E E E
||------------------|-----------------|-------------------|-----------------|
||o-----------------|-----------------|-------------------|-----------------|
||o-3-3-3-3-3-3-3-3-|-3-3-3-3-3-3-3-1-|-(1)-1-1-1-1-1-1-1-|-1-1-1-1-1-1-1---|
||------------------|-----------------|-------------------|---------------4-|


  +E  E E E E E E E   E E E E E E E E
|-------------------|-----------------|
|-------------------|-----------------|
|-------------------|-----------------|
|-(4)-4-4-4-4-4-4-4-|-4-4-4-4-4-4-4-3-|


  +E  E E E E E E E   +E  E E E E E E E
|-------------------|---------------------||
|-------------------|--------------------o||
|-----------------1-|-(1)-1-1-1-1-2---3--o||
|-(3)-3-3-3-3-3-3---|---------------------||


 Drum Solo
  +Q    H.        W          W          W
|---------------|----------|----------|------|
|---------------|----------|----------|------|
|-(3)\----------|----------|----------|------|
|---------------|----------|----------|------|


    E E E E E E E E   E E E E E E E E   +E  E E E E E E E   E E E E E E E E
||------------------|-----------------|-------------------|-----------------|
||o-----------------|-----------------|-------------------|-----------------|
||o-3-3-3-3-3-3-3-3-|-3-3-3-3-3-3-3-1-|-(1)-1-1-1-1-1-1-1-|-1-1-1-1-1-1-1---|
||------------------|-----------------|-------------------|---------------4-|


  +E  E E E E E E E   E E E E E E E E
|-------------------|-----------------|
|-------------------|-----------------|
|-------------------|-----------------|
|-(4)-4-4-4-4-4-4-4-|-4-4-4-4-4-4-4-3-|


  +E  E E E E E E E   +E  E E E E E E E
|-------------------|---------------------||
|-------------------|--------------------o||
|-----------------1-|-(1)-1-1-1-1-2---3--o||
|-(3)-3-3-3-3-3-3---|---------------------||


    +E  E E E E E E E   +E  E E E E E E E
||--------------------|-------------------|
||o-------------------|-------------------|
||o-(3)-3-3-3-3-3-3-1-|-(1)-1-1-1-1-1-1---|
||--------------------|-----------------4-|


  E E E E E E E E   E E E E E E E E  4x
|-----------------|------------------||
|-----------------|-----------------o||
|-----------------|-----------2---3-o||
|-4-4-4-4-4-4-4-3-|-3-3-3-3-3--------||


    H..       E   H..       E   H..       E   +E  E E E E E E E
||--------------|-------------|-------------|--------------------||
||o-------------|-------------|-------------|-------------------o||
||o-----------1-|-------------|-------------|-------------2---3-o||
||--------------|-----------4-|-----------3-|-(3)-3-3-3-3--------||



Duration Legend
---------------
W - whole; H - half; Q - quarter; E - 8th; S - 16th; T - 32nd; X - 64th; a - acciaccatura
+ - note tied to previous; . - note dotted; .. - note double dotted
Uncapitalized letters represent notes that are staccato (1/2 duration)
Irregular groupings are notated above the duration line
Duration letters will always appear directly above the note/fret number it represents the
duration for.  Duration letters with no fret number below them represent rests.  Multi-
bar rests are notated in the form Wxn, where n is the number of bars to rest for.  Low
melody durations appear below the staff

Tablature Legend
----------------
 h   - hammer-on
 p   - pull-off
 b   - bend
 pb  - pre-bend
 r   - bend release (if no number after the r, then release immediately)
 /\  - slide into or out of (from/to "nowhere")
 s   - legato slide
 S   - shift slide
 - natural harmonic
[n]  - artificial harmonic
n(n) - tapped harmonic
 ~   - vibrato
 tr  - trill
 T   - tap
 TP  - trem. picking
 PM  - palm muting
\n/  - tremolo bar dip; n = amount to dip
 \n  - tremolo bar down
 n/  - tremolo bar up
/n\  - tremolo bar inverted dip
 =   - hold bend; also acts as connecting device for hammers/pulls
 <> - volume swell (louder/softer)
 x   - on rhythm slash represents muted slash
 o   - on rhythm slash represents single note slash

Misc Legend
-----------
 |  - bar
||  - double bar
||o - repeat start
o|| - repeat end
*|  - double bar (ending)
 :  - bar (freetime)
 $  - Segno
 &  - Coda
Tempo markers -  = BPM(8/16=s8/s16), where s8 = swing 8ths, s16 = swing 16ths

comments
We did not receive enough feedback on this tab! Please rate:
print report bad tab
1 2 3 4 5
I want to post or [tab]
guest
You may want to rate the tab now too:
select rating
Please do not post tabs as comments. Select "correction" instead!