Oops, an error
Loading. Please wait.

Silent Scorn Tab

version 2
version 2

Whole song

Interactive

1,585 views 1 this week
no commentswrite comment
1 2 3 4 5
please rate
add to favorites
launch autoscroll
font size
0
reset
how to read this tab
guitar tuner
Tab Pro tools
  • play this tab
  • loop segment
  • change instrument
  • show fretboard
  • metronome
×
Best way to learn
"Silent Scorn"
Autoscroll
slow
fast
+/-
esc
set tempo
stop
Contributor
listen to the cd to git the right rythem. megadeth rocks
tabber: will davis
Moderately slow=80

|---------------------------------------------------------------------|
|---------------------------------------------------------------------|
|---------0-----0---------0-----0---------0-----0---------0-----0-----|
|-------2---4-2---2-----2---4-2---2-----2---4-2---2-----2---4-2---2---|
|-----2---------------2---------------3---------------3---------------|
|---0---------------0---------------0---------------0-----------------|
  let ring___________________________________________________________

|---------------------------------------------------------------------|
|---------------------------------------------------------------------|
|---------0-----0---------0-----0---------0-----0---------0-------0---|
|-------2---4-2---2-----3-----4---4-----2---4-2---2-----2-------2-----|
|-----4---------------1-----2---------2---------------4-------3-------|
|---0---------------0---------------0---------------0-------0---------|
| let ring__________________________________________________________
|
|---------------------------------------------------------------------|
|---12 w/dist. harm.--------------------------------------------------|
|---------------------------------------------------------------------|
|---------------------------------------------------------------------|
|---------------------------------------------------------------------|
|---------------------------------------------------------------------|


|-------7-----7-----7-----7-----7-----7-----7-----7---|
|---------5-----------5-----------5-----------5-------|
|-----4-----4-----4-----4-----5-----5-----5-----5-----|
|-----------------------------------------------------|
|-----------------------------------------------------|
|---0-----------0-----------0-----------0-------------|
| let ring throughout
|
|
|-----------------------------------------------|
|---5---7b---5------------------7b---5----------|
|-------------------4--4/5------------------5---|
|-----------------------------------------------|
|-----------------------------------------------|
|-----------------------------------------------|
        1/2  ~~~~~~       ~~~~~ 1/2  ~~~~~~

|-------7-----7---------------------7-------7---|
|---------5---------8------8----------5---5-----|
|-----6-----6-----9-----11---11---4-----4-------|
|---------------8-----9-------------------------|
|-----------------------------------------------|
|---0---------------------------0---------------|
|
|
|
|-------------------------------8-7---------7--------------------------------
|--------7b--------------------------10-8-----10-8-----------------8-(8)\----
|---5/6------5----------------------------------------7-9-----------------4^5
|-----------------6-----7--------------------------------------9-10----------
|---------------------------x-----------------------------------------------
|----------------------------------------------------------------------------
         1/2  ~~~  ~~~~ ~~~~                            ~~~~~~

|-------7-----7---------------------------------------|
|-----5-----5-----------------------------------------|
|---6-----5-----5-------------------------------------|
|-----------------/9--9--8--9--(9)\-------------------|
|---------------------x--x--x-------/7-9--10^9--7\6---|
|-----------------/7--7--6--7--(7)\-------------------|
|
|
|
|------------------------------|
|---7----------------5-4---3---|
|----------------4-5-----5-----|
|------------------------------|
|------------------------------|
|------------------------------|
    ~~~~~~~~~~~~~

|----------------------------------------------------------------------------
|----------------------------------------------------------------------------
|----------------------------------------------------------------------------
|------9-------------/10--10--9--10--(10)\-----------------------------------
|-7------10-9-7-9-10--x----x--x---x---------/7-9-10^9-7\6--7----7-10-9-7-9-10
|---/7---------------/8----8--7---8--(8)\--------------------/8--------------
|   letring_
|
|
|---15--15-14-14-12-12----------------------------------------------|
|----------------------12-12----------------------12-12-------------|
|----------------------------14-14-12-12-14-14-14-------12----------|
|----------------------------------------------------------14-------|
|-------------------------------------------------------------------|
|-------------------------------------------------------------------|
                                                            ~~~~~~

|--------------------------------------------------------------------------|
|--------------------------------------------------------------------------|
|---------------------------------7-9--------------------------------------|
|---/11--11--11--11--------7-9-10-----10-9---8----(8)\--5----5-------------|
|----x---x---x---x--7-9-10---------------------------------7---7----(7)\---|
|---/9---9---8---9---------------------------------------------------------|
|                                             ~~~~~
|
|
|--------------------|
|---12----------12---|
|-------12-----------|
|-----------14-------|
|--------------------|
|--------------------|


|-----------12---------------|
|---11--10--12---------------|
|---------------12-----------|
|----------------------------|
|----------------------------|
|----------------------------|
|
|
|
|-------------------------------------------------------------------------|
|-------------------------------------12----------12--12^13--12-----------|
|----------------------11--11^12----------14---------------------14--12---|
|----------2/--14---------------------------------------------------------|
|---/4--3-----------------------------------------------------------------|
|-------------------------------------------------------------------------|
|               ~~~~~~          ~~~~~~     ~~~~~~
|
|
|-------------------------------------|
|-------------------------------------|
|-----------------------2-------0-----|
|-------2-------0-----2-------2---2---|
|-----2-------2-----0-----2-3---------|
|---0-----2-3-----3-------------------|
    let ring_______________________

|----------------------------------------------------------------------------
|--------------------------12----------------------------------------------12
|-----------11--11^12----------14--------------------------------11--11^12---
|---14----------------------------------------------------12-14--------------
|------------------------------------15-14------12-14-15---------------------
|------------------------------------------14-15-----------------------------
|   ~~~~~~~         ~~~~~~~    ~~~~~                          ~~~        ~~
|
|
|----------------------------------------|
|---------------17-----------------------|
|---19-17-16-16---------16-16-18-18------|
|----------------------------------------|
|----------------------------------------|
|----------------------------------------|
                 ~~~~~~           ~~~~~~

|------------------------------------------------------19----17------19----20
|---------12--12^13--12-------/17-------17----20-----------------------------
|---14------------------14-12--------16----16-------16----16------16----16---
|----------------------------------------------------------------------------
|----------------------------------------------------------------------------
|----------------------------------------------------------------------------
|    ~~~~~                      ~~~~           ~~~~~          ~~~~         ~~
|
|
|------------------------------------------/19-17----19--20----|
|---------12-12^13-12-------17----19-20------------------------|
|---14----------------14-12------------------------------------|
|--------------------------------------------------------------|
|--------------------------------------------------------------|
|--------------------------------------------------------------|
|    ~~~~~                   ~~~~     ~~~~      ~~~~~     ~~~~~
|
|
|----------------------------0---|
|----------------------------1---|
|-----------------------2----0---|
|-------2-------0-----2------2---|
|-----2-------2-----0-----2--3---|
|---0-----2-3-----3--------------|

~~~ =vibrato
^ =pull off or hammer on
/ or \ =slide
1/2 =1/2 bend
Harm =harmonic
comments
We did not receive enough feedback on this tab! Please rate:
print report bad tab
1 2 3 4 5
I want to post or [tab]
guest
You may want to rate the tab now too:
select rating
Please do not post tabs as comments. Select "correction" instead!