Oops, an error
Loading. Please wait.

Silent Scorn Tab

version 3
version 3

Whole song

Interactive

702 views 1 this week
no commentswrite comment
1 2 3 4 5
please rate
add to favorites
launch autoscroll
font size
0
reset
how to read this tab
guitar tuner
Tab Pro tools
  • play this tab
  • loop segment
  • change instrument
  • show fretboard
  • metronome
×
Best way to learn
"Silent Scorn"
Autoscroll
slow
fast
+/-
esc
set tempo
stop
Contributor
Band- Megadeth
Song- Silent Scorn

Tuning: Standard

Riff 1 (clean)
e|---------------------------------|
B|---------------------------------|
G|-------0-----0---------0-----0---|
D|-----2---4-2---2-----2---4-2---2-|
A|---2---------------2-------------|
E|-0---------------0---------------|

e|---------------------------------|
B|---------------------------------|
G|-------0-----0---------0-----0---|
D|-----2---4-2---2-----2---4-2---2-|
A|---3---------------3-------------|
E|-0---------------0---------------|

e|---------------------------------|
B|---------------------------------|
G|-------0-----0---------0-----0---|
D|-----2---4-2---2-----3-----4---4-|
A|---4---------------1-----2-------|
E|-0---------------0---------------|

e|---------------------------------|
B|---------------------------------|
G|-------0-----0---------0-------0-|
D|-----2---4-2---2-----2-------2---|
A|---2---------------4-------3-----|
E|-0---------------0-------0-------|


Riff 2 (Solo Rhythm)
Guitar 1 (clean)
e|---------------------------------|
B|---------------------------------|
G|-------0-----0---------0-----0---|
D|-----2---4-2---2-----2---4-2---2-|
A|---2---------------2-------------|
E|-0---------------0---------------|

e|---------------------------------|
B|---------------------------------|
G|-------0-----0---------0-----0---|
D|-----2---4-2---2-----2---4-2---2-|
A|---3---------------3-------------|
E|-0---------------0---------------|

e|---------------------------------|
B|---------------------------------|
G|-------0-----0---------0-----0---|
D|-----2---4-2---2-----3-----4---4-|
A|---4---------------1-----2-------|
E|-0---------------0---------------|

e|---------------------------------|
B|---------------------------------|
G|-------0-----0---------0-------0-|
D|-----2---4-2---2-----2-------2---|
A|---2---------------4-------3-----|
E|-0---------------0-------0-------|


Guitar 2 (acoustic)
e|-----7--------7------7-------7--|
B|-------5---------------5--------|
G|---4--------4------4-------4----|
D|--------------------------------|
A|--------------------------------|
E|-0---------------0--------------|

e|-----7--------7------7-------7--|
B|-------5---------------5--------|
G|---5--------5------5-------5----|
D|--------------------------------|
A|--------------------------------|
E|-0---------------0--------------|

e|-----7--------7-------------------|
B|-------5-------------8-------8----|
G|---6--------6------9------11---11-|
D|-----------------8------9---------|
A|----------------------------------|
E|-0--------------------------------|

e|-----7----------7------7------7---|
B|-------5------5------5------5---5-|
G|---4--------4------6------5-------|
D|----------------------------------|
A|----------------------------------|
E|-0--------------------------------|


Guitar 3 (Trumpet arranged for guitar)
e|-15--15-14-14-12-12-------------------------------------|
B|-------------------12-12--------------------12-12-------|
G|------------------------14-14-12-12-14-14-14-----12-----|
D|---------------------------------------------------14~~-|
A|--------------------------------------------------------|
E|--------------------------------------------------------|

e|--------------|
B|-12-------12--|
G|----12--------|
D|-------14-----|
A|--------------|
E|--------------|

e|-------------12----------|
B|-11----10----12----------|
G|------------------12~~~--|
D|-------------------------|
A|-------------------------|
E|-------------------------|


Solo (Mustaine)
e|------------------------------------------|
B|---5~~---7b8---5~~--------------7b8---5~~-|
G|-4-------------------4-4/5~~--------------|
D|------------------------------------------|
A|------------------------------------------|
E|------------------------------------------|

e|------------------------------8-7------7------------|
B|---------7b8--5~------------------10-8---10-8-------|
G|-5--5/6-----------6~--7~~--x------------------7-9~~-|
D|----------------------------------------------------|
A|----------------------------------------------------|
E|----------------------------------------------------|

e|---------------------------------------|
B|-----8----(8)\------7~--------/5-3---3-|
G|-4-5------------4-5-------4-5------5---|
D|---------------------------------------|
A|---------------------------------------|
E|---------------------------------------|

e|-------------------------------------------------|
B|-------------------------------------------------|
G|-------------------------------------------------|
D|-/9--9-8--9------------------------9-------------|
A|--x--x-x--x----7-9-10-9-7-6-7--------10-9-7-9-10-|
E|-/7--7-6--7--------------------/7~---------------|

e|--------------------------------------------------|
B|--------------------------------------------------|
G|--------------------------------------------------|
D|-/10-10-9-10--------------------------------------|
A|---x--x-x--x----7-9-10-9-7-6-7------7-10-9-7-9-10-|
E|--/8--8-7--8--------------------/8----------------|

e|----------------------------------------------------------|
B|----------------------------------------------------------|
G|-------------------------------7-9------------------------|
D|-/11-11-10-11-----------7-9-10----10-9~~--8~\--5---5------|
A|---x--x--x--x----7-9-10--------------------------7---7~~\-|
E|--/9--9--8--9---------------------------------------------|

e|--------------|
B|--------------|
G|--------------|
D|----------2/--|
A|-/4~--3~------|
E|--------------|

End solo


Riff 2 (Solo Rhythm)
Guitar 1 (clean)
e|---------------------------------|
B|---------------------------------|
G|---------------------2-------0---|
D|-----2-------0-----2-------2---2-|
A|---2-------2-----0-----2-3-------|
E|-0-----2-3-----3-----------------|

Final time
e|--------------------------------|
B|-----------------------------1--|
G|---------------------2------0---|
D|-----2-------0-----2-------2----|
A|---2-------2-----0-----2--3-----|
E|-0-----2-3-----3----------------|


Guitar 2 (Trumpet arranged for guitar)
e|-----------------------------------|
B|-------------17~-------------------|
G|-19-17-16-16-------16-16--18-18~~--|
D|-----------------------------------|
A|-----------------------------------|
E|-----------------------------------|


Solo (Mustaine)
NOTE: A trumpet plays along with the guitar, except
at the end of the solo as noted.
e|-------------------------------------------------|
B|-----------------12--------12-12h13-12~----------|
G|------11-11h12~------14~~----------------14~-12~-|
D|-14~---------------------------------------------|
A|-------------------------------------------------|
E|-------------------------------------------------|

e|----------------------------------------------------|
B|-----------------12---------------------------------|
G|------11-11h12~------14~~---------------------------|
D|-14~---------------------------------------------12-|
A|---------------------------15-14~-------12-14-15----|
E|----------------------------------14-15-------------|

e|-------------------------------------------------|
B|----------------12--------12-12h13-12~-----------|
G|------11-11h12~-----14~~----------------14~--12~-|
D|-14~---------------------------------------------|
A|-------------------------------------------------|
E|-------------------------------------------------|

2 guitars for last bar:

Guitar 1
e|--------------------------19----17~~-----19-----20~~~-|
B|-/17~~-----17----20~~---------------------------------|
G|--------16----16-------16----16-------16-----16-------|
D|------------------------------------------------------|
A|------------------------------------------------------|
E|------------------------------------------------------|

Guitar 2 (trumpet arranged for guitar)
e|-------------------------/19----17~~-----19-----20~~~-|
B|-/17~~-----19----20~~---------------------------------|
G|------------------------------------------------------|
D|------------------------------------------------------|
A|------------------------------------------------------|
E|------------------------------------------------------|

End solo


Notation:

10^        = bend a quarter step.
10b11      = bend a half step.
10b12      = bend a full step.
10b12r10   = bend and release.
[10]12     = pre-bend.
[10]12r10  = pre-bend and release.
{14}       = pick the 14th fret while holding the most
             previous bend.
<17>       = touch the string above the 17th fret while
             previous note(s) is(are) still ringing.

10b13*     = tremolo bar bend, from the 10th fret to the 13th fret.
7d4*       = tremolo bar dive, from the 7th fret to the 4th fret.
12~*       = tremolo bar vibrato.

x   =  mute with fret-hand
*   =  palm mute
X\\ =  pick slide
h   =  hammer-on
p   =  pull-off
~   =  vibrato
t   =  finger tap
/   =  slide up
\   =  slide down
h.  =  natural harmonics
a   =  artificial harmonics
(9) =  ghost note
tm  =  trem picking
tr  =  trill
comments
We did not receive enough feedback on this tab! Please rate:
print report bad tab
1 2 3 4 5
I want to post or [tab]
guest
You may want to rate the tab now too:
select rating
Please do not post tabs as comments. Select "correction" instead!