Oops, an error
Loading. Please wait.

Skin O My Teeth Tab

version 1
version 1

Whole song

Interactive

72,432 views 54 this week
11 commentsread comments
1 2 3 4 5
x 22
add to favorites
launch autoscroll
font size
0
reset
how to read this tab
guitar tuner
backing track
0:00
0:00
×
Best way to learn
"Skin O My Teeth"
Autoscroll
slow
fast
+/-
esc
set tempo
stop
Artist: Megadeth
Album: Countdown to Extinction
Song: Skin 'O' My Teeth

Tabbed by: John Mercer
E-mail: spacenumber6@hotmail.com


The whole tune is layed out for you.
The timing is off, cause it's an internet tab
Solo timing is so off, I don't know where to start.
You got to remember, the solo timing is off!

 [Intro]
                A  Ab G  F# F  E  
e|-----------|--------------------|
B|-Mini------|--------------------|
G|-Drum------|--------------------|
D|-Solo------|--------------------|
A|-----------|--7--6--5--4--3--2--|
E|-----------|--5--4--3--2--1--0--|

   A
  (Play this two times)
e|----------------------------------------------------------------|
B|*--------------------------------------------------------------*|
G|-----------------------------------------------5---7br---5------|
D|-7-------------7-------------7-----------------5---7br---5------|
A|*0----0---0----0----0---0----0-----0---0---0-----------------0-*|
E|----------------------------------------------------------------|

   A
                                         I had
e|--------------------------------------------|
B|--------------------------------------------|
G|--------------------------------------------|
D|-7-------------7-------------7--------------|
A|-0----0---0----0----0---0----0-----0--------|
E|--------------------------------------------|

[Verse]
  A       C       D                        A       C       A
  wrists  donning   slits                  Flowing constantly                 My

      Pm-     Pm-                              Pm-       Pm
e|----------------------------------------|-----------------------------------------|
B|----------------------------------------|-----------------------------------------|
G|---------5-------7---------5--7br--5----|---------5--------2--------5--7br---5----|
D|-7-------5-------7------7--5--7br--5--7-|-7-------5--------2-----7--5--7br---5--7-|
A|-0--0-0-----0-0---------7---------------|-0--0-0-----------0-----7----------------|
E|----------------------------------------|---------------3-------------------------|

  A       C       D                        A       C       A
  brokren body     in    a wreck       I   wrapped around a   tree             A

      Pm-     Pm-                              Pm-        Pm
e|----------------------------------------|------------------------------------------|
B|----------------------------------------|------------------------------------------|
G|---------5-------7---------5--7br--5----|---------5---------2--------5--7br---5----|
D|-7-------5-------7------7--5--7br--5--7-|-7-------5---------2-----7--5--7br---5--7-|
A|-0--0-0-----0-0---------7---------------|-0--0-0------------0-----7----------------|
E|----------------------------------------|----------------3-------------------------|

  A       C       D                        A       C       A
  cross-walk        hit  and   run    the  finish  line  for me

      Pm-     Pm-                              Pm-       Pm
e|----------------------------------------|-----------------------------------------|
B|----------------------------------------|-----------------------------------------|
G|---------5-------7---------5--7br--5----|---------5--------2--------5--7br---5----|
D|-7-------5-------7------7--5--7br--5--7-|-7-------5--------2-----7--5--7br---5--7-|
A|-0--0-0-----0-0---------7---------------|-0--0-0-----------0-----7----------------|
E|----------------------------------------|---------------3-------------------------|

  A       C       D                        A       C       A
  People  clutter   in   the   gutter      take a  look and see

      Pm-     Pm-                              Pm-       Pm
e|----------------------------------------|----------------------|
B|----------------------------------------|----------------------|
G|---------5-------7---------5--7br--5----|---------5--------2---|
D|-7-------5-------7------7--5--7br--5--7-|-7-------5--------2---|
A|-0--0-0-----0-0---------7---------------|-0--0-0-----------0---|
E|----------------------------------------|---------------3------|

[Chorus]

  A                                      F
  No escaping pain                       You  belong to me

     Hold-----------                      Hold--------------
e|--------------------------------------|---------------------------------------|
B|--------------------------------------|---------------------------------------|
G|-2-----2-----2-----------5--7br--5----|--------------------------5--7br--5----|
D|---------------------7---5--7br--5--7-|-3------3------3------7---5--7br--5--7-|
A|----0----------------7----------------|------------------5---7----------------|
E|----------4------3--------------------|----1------0---------------------------|

  A                                      F
  Clinging on to life         by the     skin of my teeth

     Hold-----------                      Hold--------------
e|--------------------------------------|---------------------------------------|
B|--------------------------------------|---------------------------------------|
G|-2-----2-----2-----------5--7br--5----|--------------------------5--7br--5----|
D|---------------------7---5--7br--5--7-|-3------3------3------7---5--7br--5--7-|
A|----0----------------7----------------|------------------5---7----------------|
E|----------4------3--------------------|----1------0---------------------------|

  A                                      F
  No escaping pain                       You  belong to me

     Hold-----------                      Hold--------------
e|--------------------------------------|---------------------------------------|
B|--------------------------------------|---------------------------------------|
G|-2-----2-----2-----------5--7br--5----|--------------------------5--7br--5----|
D|---------------------7---5--7br--5--7-|-3------3------3------7---5--7br--5--7-|
A|----0----------------7----------------|------------------5---7----------------|
E|----------4------3--------------------|----1------0---------------------------|

  A                                      F
  Clinging on to life         by the     skin of my teeth           And my

     Hold-----------                      Hold--------------
e|--------------------------------------|-----------------------------------|
B|--------------------------------------|-----------------------------------|
G|-2-----2-----2-----------5--7br--5----|-----------------------------------|
D|---------------------7---5--7br--5--7-|-3------3------3-------------------|
A|----0----------------7----------------|------------------5b(Gradual Bend)-|
E|----------4------3--------------------|----1------0-----------------------|
  
[2nd Verse]
  A       C       D                        A       C       A
  blood flows through the streets          Deluge from the wounds

     Pm-     Pm-                              Pm-       Pm

e|----------------------------------------|-----------------------------------------|
B|----------------------------------------|-----------------------------------------|
G|---------5-------7---------5--7br--5----|---------5--------2--------5--7br---5----|
D|-7-------5-------7------7--5--7br--5--7-|-7-------5--------2-----7--5--7br---5--7-|
A|-0--0-0-----0-0---------7---------------|-0--0-0-----------0-----7----------------|
E|----------------------------------------|---------------3-------------------------|

  A       C       D                        A       C       A
  Empty jar of sleeping pills              On the dresser in my room  

      Pm-     Pm-                              Pm-        Pm
e|----------------------------------------|------------------------------------------|
B|----------------------------------------|------------------------------------------|
G|---------5-------7---------5--7br--5----|---------5---------2--------5--7br---5----|
D|-7-------5-------7------7--5--7br--5--7-|-7-------5---------2-----7--5--7br---5--7-|
A|-0--0-0-----0-0---------7---------------|-0--0-0------------0-----7----------------|
E|----------------------------------------|----------------3-------------------------|

  A       C       D                        A       C       A
  My wet brain neighbour cranes            His neck to see in time

      Pm-     Pm-                              Pm-       Pm
e|----------------------------------------|-----------------------------------------|
B|----------------------------------------|-----------------------------------------|
G|---------5-------7---------5--7br--5----|---------5--------2--------5--7br---5----|
D|-7-------5-------7------7--5--7br--5--7-|-7-------5--------2-----7--5--7br---5--7-|
A|-0--0-0-----0-0---------7---------------|-0--0-0-----------0-----7----------------|
E|----------------------------------------|---------------3-------------------------|

  A       C       D                        A       C       A
  The white lights a train                 Bearing down on me

      Pm-     Pm-                              Pm-       Pm
e|----------------------------------------|----------------------|
B|----------------------------------------|----------------------|
G|---------5-------7---------5--7br--5----|---------5--------2---|
D|-7-------5-------7------7--5--7br--5--7-|-7-------5--------2---|
A|-0--0-0-----0-0---------7---------------|-0--0-0-----------0---|
E|----------------------------------------|---------------3------|

[2nd Chorus]
  A                                      F
  No escaping pain                       You  belong to me

     Hold-----------                      Hold--------------
e|--------------------------------------|---------------------------------------|
B|--------------------------------------|---------------------------------------|
G|-2-----2-----2-----------5--7br--5----|--------------------------5--7br--5----|
D|---------------------7---5--7br--5--7-|-3------3------3------7---5--7br--5--7-|
A|----0----------------7----------------|------------------5---7----------------|
E|----------4------3--------------------|----1------0---------------------------|

  A                                      F
  Clinging on to life         by the     skin of my teeth

     Hold-----------                      Hold--------------
e|--------------------------------------|---------------------------------------|
B|--------------------------------------|---------------------------------------|
G|-2-----2-----2-----------5--7br--5----|--------------------------5--7br--5----|
D|---------------------7---5--7br--5--7-|-3------3------3------7---5--7br--5--7-|
A|----0----------------7----------------|------------------5---7----------------|
E|----------4------3--------------------|----1------0---------------------------|

  A                                      F
  No escaping pain                       You  belong to me

     Hold-----------                      Hold--------------
e|--------------------------------------|---------------------------------------|
B|--------------------------------------|---------------------------------------|
G|-2-----2-----2-----------5--7br--5----|--------------------------5--7br--5----|
D|---------------------7---5--7br--5--7-|-3------3------3------7---5--7br--5--7-|
A|----0----------------7----------------|------------------5---7----------------|
E|----------4------3--------------------|----1------0---------------------------|

  A                                      F
  Clinging on to life         by the     skin of my teeth           And my

     Hold-----------                      Hold--------------
e|--------------------------------------|-----------------------------------|
B|--------------------------------------|-----------------------------------|
G|-2-----2-----2-----------5--7br--5----|-----------------------------------|
D|---------------------7---5--7br--5--7-|-3------3------3-------------------|
A|----0----------------7----------------|------------------5b(Gradual Bend)-|
E|----------4------3--------------------|----1------0-----------------------|

 [Solo]
  Gtr 2(Marty)
e|--------------------|-/12------------------------|------------------|
B|---8b~~~~~~---------|-----13--12--13--12---------|-12b~~~~~~--------|
G|--------------------|---------------------14-----|------------------|
D|--------------------|-------------------------14-|------------------|
A|--------------------|----------------------------|------------------|
E|--------------------|----------------------------|------------------|
                                                                     |
 Pm------------        Pm----------------------------------------    |
 Gtr 1(Dave)                                                         |
E--------------------|----------------------------|------------------|
B--------------------|----------------------------|------------------|
G--------------------|----------------------------|------------------|
D--------------------|----------------------------|------------------|
A--0--------3-----0--|-3--0-----0-----------------|-0--------3-----0-|
E-----3--3-----3-----|-------3-----3--2--0--------|----3--0-----3----|

                         F#       G        A      D           C
e|-15b-----------------|-15br-12-14br----12~~~-|------------------------------|
B|--------15b~~~-------|--------------15-------|---13h15p13-15p13----13-------|
G|---------------------|-----------------------|------------------14----14br--|
D|---------------------|-----------------------|------------------------------|
A|---------------------|-----------------------|------------------------------|
E|---------------------|-----------------------|------------------------------|
                                                                             |
  Pm------------------------------------                                     |
e---------------------|-----------------------|------------------------------|
B---------------------|-----------------------|------------------------------|
G---------------------|-------------------2---|--7--7--7--7--5---------------|
D---------------------|-------4--------5--2---|--7--7--7--7--5---------------|
A-3--0-----0----------|----4--------5-----0---|--5--5--5--5--3---------------|
E-------3-----3--2--0-|-2--------3------------|------------------------------|

                        G          A
e|--------------------|----------------------------|-------------------------------------|
B|-13-15-15br13-15br--|-13--------------------17---|-22p17-------17-20p19p17----17h20p17-|
G|--------------------|----14~~~~-------17h18------|-------18h19-------------19----------|
D|--------------------|----------------------------|-------------------------------------|
A|--------------------|----------------------------|-------------------------------------|
E|--------------------|----------------------------|-------------------------------------|
                                                                                        |
   Pm------------                                   Pm-----------                       |
E--------------------|----------------------------|-------------------------------------|
B--------------------|-8--8--8--8/10--10----------|-------------------------------------|
G--------------------|-7--7--7--7/9---9-----------|-------------------------------------|
D--------------------|-5--5--5--5/7---7-----------|-------------------------------------|
A--0--------3-----0--|-5--5--5--5/7---7-----------|-0--------3-----0--------------------|
E-----3--0-----3-----|----------------------------|----3--3-----3-----------------------|

e|-19-------------------------------------|----------------------------------------------|
B|----17----17----------------------------|----------------------------------------------|
G|-------19----19p17----17-19-19-19-19p17-|----17--19-16h17p16----16---------------------|
D|-------------------19-------------------|-19-----------------19----19--17-515h17p15----|
A|----------------------------------------|-------------------------------------------19-|
E|----------------------------------------|----------------------------------------------|
                                                                                        |
  Pm------------------------------------------------------                              |
e----------------------------------------|----------------------------------------------|
B----------------------------------------|----------------------------------------------|
G----------------------------------------|----------------------------------------------|
D----------------------------------------|----------------------------------------------|
A-3--0-----0-----------------------------|-0--------3-------0---------------------------|
E-------3-----3--2--0--------------------|----3--0-------3------------------------------|

                             F#       G                     D           C
e|-------------------------|--------------------------|-------------------|
B|-------------------------|-7--7--7--8--8--8--10--10-|-10----------------|
G|-------------------------|--------------------------|-----9br~~~~-------|
D|-\10--------(10)/19\-----|-4--4--4--5--5--5--7---7--|-7-----------------|
A|-------------------------|--------------------------|-------------------|
E|-------------------------|--------------------------|-------------------|
                                                                         |
       Pm------------------------------------                             |
e|-------------------------|--------------------------|-------------------|
B|-------------------------|--------------------------|-------------------|
G|-------------------------|-------------------2------|-----7--7--7--7--5-|
D|-------------------------|-------2--------5--2------|-----7--7--7--7--5-|
A|-----3--0-----0----------|----2--------5-----0------|-----5--5--5--5--3-|
E|-----------3-----3--2--0-|-2--------3---------------|-------------------|

                           G          A
e|--------------------|------------------------8-|-----------------7----------|
B|--------------------|-----------------8--10----|-10b~~~--------7---10p7-----|
G|-------7b-7pb--7--5-|-5--5--------/9-----------|------------------------9br-|
D|--------------------|-------7~~~---------------|----------------------------|
A|--------------------|--------------------------|----------------------------|
E|--------------------|--------------------------|----------------------------|
                                                                             |
  Pm-------------                                 Pm-------------            |
e--------------------|--------------------------|----------------------------|
B--------------------|----8--8--8--8/10--10-----|----------------------------|
G--------------------|----7--7--7--7/9----9-----|----------------------------|
D--------------------|----5--5--5--5/7----7-----|----------------------------|
A-0--------3-------0-|----5--5--5--5/7----7-----|-2--------5-------2---------|
E----3--0-------3----|--------------------------|----5--2-------5------------|

e|-7-------------------|-----7--------------------|---------------------|
B|---10p7----7-10---7--|-------10p7----7----------|---------------------|
G|--------9b------9----|-9br--------10---10p9p7---|--9bf-----7---(7)/---|
D|---------------------|------------------------9-|---------------------|
A|---------------------|--------------------------|---------------------|
E|---------------------|--------------------------|---------------------|
                                                                       |
  Pm---------------------------------              Pm----------------- |
e---------------------|--------------------------|---------------------|
B---------------------|--------------------------|---------------------|
G---------------------|--------------------------|---------------------|
D---------------------|--------------------------|---------------------|
A-5--2-----2----------|-2--------5-----2---------|-5--2-----2----------|
E-------5-----5--4--2-|----5--2-----5------------|-------5-----5--4--2-|

e|-10-12p10----0-12-9h10p9----9----7h9p7----|-7h9p7----7-----------------|
B|----------12-------------12---12-------10-|-------10---10p9h10-7~~~-10-|
G|------------------------------------------|----------------------------|
D|------------------------------------------|----------------------------|
A|------------------------------------------|----------------------------|
E|------------------------------------------|----------------------------|
                                                                        |
 Pm--------------                                Pm-----------------    |
e------------------------------------------|----------------------------|
B------------------------------------------|----------------------------|
G------------------------------------------|----------------------------|
D------------------------------------------|----------------------------|
A-2--------5-------2-----------------------|-----5--2-----2-------------|
E----5--2-------5--------------------------|-----------5-----5--4--2----|

                      B                  Bb          A       Ab
e|---7-10-9-12-10-14-12-10-14-11----|-11-13-10----10-12-9----11-8---|
B|-9-----------------------------12-|----------11---------10------9-|
G|----------------------------------|-------------------------------|
D|----------------------------------|-------------------------------|
A|----------------------------------|-------------------------------|
E|----------------------------------|-------------------------------|
                                                                   |
  Pm-------------                                                  |            
e----------------------------------|-------------------------------|
B----------------------------------|-------------------------------|
G----------------------------------|-------------------------------|
D--------------------4-------------|----3-----------2--------------|
A-2--------5---------2-------------|----1-----------0-------6------|
E----5--2-------5------------------|------------------------4------|

e|-------------------------------17----------|-----------14-----------------------|
B|----------17----------------17----17-------|----13/14-----17p14-17p14-17b-------|
G|----17-18----18-17----17-18----------18-17-|------------------------------14h17-|
D|-19----------------19----------------------|-19---------------------------------|
A|-------------------------------------------|------------------------------------|
E|-------------------------------------------|------------------------------------|
                                                                                 |
 Pm---------------                            Pm-------------------              |
e-------------------------------------------|------------------------------------|
B-------------------------------------------|------------------------------------|
G-------------------------------------------|------------------------------------|
D-------------------------------------------|------------------------------------|
A-0--------3-------0------------------------|-3--0-------0-----------------------|
E----3--3-------3---------------------------|-------3-------3--2--0--------------|

e|----------------------17--------------|----15-----------------17-------|
B|-14-17p14----------14----14-15p14-16/-|-17----17-20p17-20b~~~----20p17-|
G|----------17p14-17--------------------|--------------------------------|
D|--------------------------------------|--------------------------------|
A|--------------------------------------|--------------------------------|
E|--------------------------------------|--------------------------------|

   Pm---------------------------            Pm------------------  
e|--------------------------------------|---------------------------------|
B|--------------------------------------|---------------------------------|
G|--------------------------------------|---------------------------------|
D|--------------------------------------|---------------------------------|
A|-0--------3---------0-----------------|----3--0-----0-------------------|
E|----3--0--------3---------------------|----------3-----3--2--0----------|

   B        G        A        D                              C
e|-----------------17-------|------------------------------17--|
B|-20b-20b-20b-20b----20p17-|---------------------------17-----|
G|--------------------------|---19br-17-19-17b-17br-19b--------|
D|--------------------------|----------------------------------|
A|--------------------------|----------------------------------|
E|--------------------------|----------------------------------|
                                                              
e|--------------------------|----------------------------------|
B|--------------------------|----------------------------------|
G|-------------------2------|-7---------7-------7------7-----5-|
D|-------4--------5--2------|-7---------7-------7------7-----5-|
A|----4--------5-----0------|-5---------5-------5------5-----3-|
E|-2--------3---------------|----------------------------------|

                                    G           A    
e|-20b-20-17------------------17-|----------------------------|
B|-----------20p17-----17--------|----17----------------------|
G|-----------------19b----19b----|-20----17-19b2-17-----------|
D|-------------------------------|------------------19~~~~~~\-|
A|-------------------------------|----------------------------|
E|-------------------------------|----------------------------|
                                                             | 
  Pm-------------                                            |
e-------------------------------|----------------------------|
B-------------------------------|--8--8--8--8/-10--10--------|
G-------------------------------|--7--7--7--7/-9---9---------|
D-------------------------------|--5--5--5--5/-7---7---------|
A-0--------3-------0------------|--5--5--5--5/-7---7---------|
E----3--0-------3---------------|----------------------------|
    
 [Interlude]
    A  Ab G  F# F  E
e|--------------------|
B|--------------------|
G|--------------------|
D|--7--6--5--4--3--2--|
A|--------------------|
E|--------------------|
                     |
e|--------------------|
B|--------------------|
G|--------------------|
D|--------------------|
A|--7--6--5--4--3--2--|
E|--5--4--3--2--1--0--|

 Then play this
   A
e|------------------------------------------------------------------|
B|------------------------------------------------------------------|
G|-----------------------------------------------5---7br-----5------|
D|-7-------------7-------------7-----------------5---7br-----5------|
A|-0----0---0----0----0---0----0-----0---0---0-------------------0--|
E|------------------------------------------------------------------|

   A
e|------------------------------------------------------------------|
B|------------------------------------------------------------------|
G|-----------------------------------------------5---7br-----5------|
D|-7-------------7-------------7-----------------5---7br-----5------|
A|-0----0---0----0----0---0----0-----0---0---0-------------------0--|
E|------------------------------------------------------------------|

                   I
   Pick Slides
e|-------------------|
B|-------------------|
G|-------------------|
D|-------------------|
A|-------------------|
E|-x\-x\-x\-x\-x\-x\-|

[3rd Verse]
  A       C       D                        A       C       A
  won't feel the hurt                      I'm not trash any longer

      Pm-     Pm-                              Pm-       Pm
e|----------------------------------------|-----------------------------------------|
B|----------------------------------------|-----------------------------------------|
G|---------5-------7---------5--7br--5----|---------5--------2--------5--7br---5----|
D|-7-------5-------7------7--5--7br--5--7-|-7-------5--------2-----7--5--7br---5--7-|
A|-0--0-0-----0-0---------7---------------|-0--0-0-----------0-----7----------------|
E|----------------------------------------|---------------3-------------------------|

  A       C       D                        A       C       A
  That that doesn't kill me                Only makes me stronger

      Pm-     Pm-                              Pm-        Pm
e|----------------------------------------|------------------------------------------|
B|----------------------------------------|------------------------------------------|
G|---------5-------7---------5--7br--5----|---------5---------2--------5--7br---5----|
D|-7-------5-------7------7--5--7br--5--7-|-7-------5---------2-----7--5--7br---5--7-|
A|-0--0-0-----0-0---------7---------------|-0--0-0------------0-----7----------------|
E|----------------------------------------|----------------3-------------------------|

  A       C       D                        A       C       A
  I need a ride to the morgue              That's what 911 is for

      Pm-     Pm-                              Pm-       Pm
e|----------------------------------------|-----------------------------------------|
B|----------------------------------------|-----------------------------------------|
G|---------5-------7---------5--7br--5----|---------5--------2--------5--7br---5----|
D|-7-------5-------7------7--5--7br--5--7-|-7-------5--------2-----7--5--7br---5--7-|
A|-0--0-0-----0-0---------7---------------|-0--0-0-----------0-----7----------------|
E|----------------------------------------|---------------3-------------------------|

  A       C       D                        A       C       A
  So tag my toe and don't forget           Ooh, to close the door

      Pm-     Pm-                              Pm-       Pm
e|----------------------------------------|-----------------------|
B|----------------------------------------|-----------------------|
G|---------5-------7---------5--7br--5----|---------5--------2----|
D|-7-------5-------7------7--5--7br--5--7-|-7-------5--------2----|
A|-0--0-0-----0-0---------7---------------|-0--0-0-----------0----|
E|----------------------------------------|---------------3-------|

[Chorus]

  A                                      F
  No escaping pain                       You  belong to me

     Hold-----------                      Hold--------------
e|--------------------------------------|---------------------------------------|
B|--------------------------------------|---------------------------------------|
G|-2-----2-----2-----------5--7br--5----|--------------------------5--7br--5----|
D|---------------------7---5--7br--5--7-|-3------3------3------7---5--7br--5--7-|
A|----0----------------7----------------|------------------5---7----------------|
E|----------4------3--------------------|----1------0---------------------------|

  A                                      F
  Clinging on to life         by the     skin of my teeth

     Hold-----------                      Hold--------------
e|--------------------------------------|---------------------------------------|
B|--------------------------------------|---------------------------------------|
G|-2-----2-----2-----------5--7br--5----|--------------------------5--7br--5----|
D|---------------------7---5--7br--5--7-|-3------3------3------7---5--7br--5--7-|
A|----0----------------7----------------|------------------5---7----------------|
E|----------4------3--------------------|----1------0---------------------------|

  A                                      F
  No escaping pain                       You  belong to me

     Hold-----------                      Hold--------------
e|--------------------------------------|---------------------------------------|
B|--------------------------------------|---------------------------------------|
G|-2-----2-----2-----------5--7br--5----|--------------------------5--7br--5----|
D|---------------------7---5--7br--5--7-|-3------3------3------7---5--7br--5--7-|
A|----0----------------7----------------|------------------5---7----------------|
E|----------4------3--------------------|----1------0---------------------------|

  A                                      F
  Clinging on to life         by the     skin of my teeth           

     Hold-----------                      Hold--------------
e|--------------------------------------|------------------------------------------|
B|--------------------------------------|------------------------------------------|
G|-2-----2-----2-----------5--7br--5----|------------------------------------------|
D|---------------------7---5--7br--5--7-|-3------3------3--------------------------|
A|----0----------------7----------------|------------------5b(Gradual Bend)--------|
E|----------4------3--------------------|----1------0--------(Hold for a few bars)-|
  
 [Outro]
    A
                            Pm--------------
e|--------------------------------------------|
B|--------------------------------------------|
G|--2--5--5--5--7br--5------------------------|
D|--2--5--5--5--7br--5--7---------------------|
A|--0-----------------------0-----------3--0--|
E|-----------------------------4--3--0--------|

Symbols used in this tab:

************************************

\  Slide Down
/  Slide Up
Pm Palm Mute
br Bend and Release
pb Pre-Bend
b  Bend
h  Hammer
p  Pull-Off
~  Vibrato

************************************
Suggest correction
comments
print report bad tab
11 comments total. Showing first comments.
0 reply
dOwnstOnE 191 Mar 28, 2003 07:00 PM

If u want real, ALL megadeth tabs, search for the vault of death

0 reply
dOwnstOnE 191 Mar 28, 2003 07:00 PM

cause this guy got allllll his tabs from there, and gives no credit..

0 reply
Space #6 210 Sep 02, 2003 08:00 PM

Because this guy didn't get the tabs there, cause if he did he'd give credit. Did ya ever think that people can figure this *** out. You ***ing ***head!

guest
You may want to rate the tab now too:
select rating
Wanna post a correction for this tab? Suggest correction