Oops, an error
Loading. Please wait.

Skin O My Teeth Bass Tab

version 2
version 2

Whole song

Interactive

4,184 views 6 this week
no commentswrite comment
1 2 3 4 5
please rate
add to favorites
launch autoscroll
font size
0
reset
guitar tuner
Autoscroll
slow
fast
+/-
esc
set tempo
stop
Help us to improve Ultimate-Guitar.com Take our survey!
×
Contributor
Easy song, follow it and you'll get it.

Intro

G|--------------------|
D|--------------------|
A|--------------------|
E|5--4--3--2--1--0--5-|

Verse

G|-----------------------|------------------------|
D|-----------------------|------------------------|
A|0-0-0--3-3--5--3-5-3-0-|0--0-0-0-3-----3-5-3-0--|
E|-----------------------|-----------3-5----------|

Pre-Chorus Bass Fill

G|---------------|
D|7-7-5----------|
A|------7-6-5----|
E|------------8--|

Chorus

G|----------------------|------------------------|
D|----------------------|------------------------|
A|--------------3--5-3--|-------------5--3--5-3--|
E|5-5--5--4--3----------|1-1-1--1--0-------------|

Solo 

G|-------(2x)----------------|--------------------------------------------|
D|---------------------------|--------------------------------------------|
A|----3-------3--------------|---------------5-5-5--3------3--------------|
E|5-5---3-5-----5-3--5-3-2-0-|2-2-2-3-3-3-5------------5-5---3-5--5--5-3--|

G|-------(2x)----------------|-------------------------------------------|
D|---------------------------|--------------2-2-2------------------------|
A|2-2-5----2--5-2---2--------|------------2-------5--2-2-5----2--2-2-----|
E|------5---------5---5-4-2--|4-4-4-5-5-5-------------------5---------5--|

Ending

G|---------------------------------|
D|---------------------------------|
A|0-0-3-3-5--3-5-3-0---------3-----|
E|-------------------5-4-3-0---5---|

comments
We did not receive enough feedback on this tab! Please rate:
print report bad tab
1 2 3 4 5
I want to post or [tab]
guest
You may want to rate the tab now too:
select rating
Please do not post tabs as comments. Select "correction" instead!