Oops, an error
Loading. Please wait.

Sleepwalker bass

version 1
version 1
8,540 views 1 this week
2 commentsread comments
1 2 3 4 5
x 8
add to favorites
×
Save as Personal and add changes to this tab that will be seen only by you. Learn more ›
×
You can save this tab as Personal to edit and correct it or add notes. All changes will be seen only by you. Learn more »
launch autoscroll
font size
0
reset
guitar tuner
backing track
0:00
0:00
edit
Autoscroll
slow
fast
+/-
esc
set tempo
stop
Author
Difficulty
TAB INFO:

BAND: Megadeth
SONG: Sleepwalker
TAB WRITTEN BY: EAGLE86

How to play:

This is my first TAB and I hope that it works fine, it does for me.
I didnt wright the how many times to play the parts and I didnt wright
in what order to play them. I didnt think is was important to do that
because you will need to listen to what you are playing. The song is fast
and it jump between notes very fast so you will need to find you way to
play it. You might be confused but you will understand after you tried for
a while! Have fun!


INTRO:

---------------------------------------------------------------------------|
-----454----------------------------------454-------------5-------4--------|
-7-------5-2---0-2-3--5-3-2-0---2-3-5-7-------5-2--0-2-4----4--3----3------|
---------------------------------------------------------------------------|
---------------------------------------------------------------------------|


BUILD UP:

---------------------------------------------------------------------------|
---------------------------------------------------------------------------|
-1-1-1-1-1-1-1-1-1-1-1-1-1-1-1-1-1-1-1-1-1-1-1-1---------------------------|
---------------------------------------------------------------------------|
---------------------------------------------------------------------------|


RIFF 1:

---------------------------------------------------------------------------|
---------------------------------------------------------------------------|
-----------------------------------------------------------------------1---|
-0--0--0-0-0-0-0-0--0--0--0-0-0-0-0-0--0--0--0-0-0-0-0-0--0-0--0-0-0-0-----|
---------------------------------------------------------------------------|


VERSE RIFF 1:

------------------------------------------------------------------------------------|
------------------------------------------------------------------------------------|
------------------------------------------------------------------------------------|
-2--2--2-0-2-0-2-3-2-0-2--2--2-0-2-0-2-3-2-0-2--2--2-0-2-0--2-3-2-0-2--2--2-0-2-0-3-|
------------------------------------------------------------------------------------|


VERSE RIFF 2:
----------------------------------------|
----------------------------------------|
--5-7---------10-7---------5-7--8-8-8---|
------0-0-0-0------0-0-0-0--------------|
----------------------------------------|


CHORUS PART 1:
-----------------------------------------------------------------------------------------|
-----------------------------------------------------------------------------------------|
-----------------------------------------------------------2-2-2-2-2-2-2-2-2-2-2-2-2-2---|
-2-2-2-2-2-2-2-2-2-2-2-2-2-2-2/5-5-5-5-5-5-5-5-5-5-5-5-5-5-------------------------------|
-----------------------------------------------------------------------------------------|


CHORUS PART 2:

-------------------------------------------------------------------------------------------------------|
-------------------------------------------------------------------------------------------------------|
-------------------------------------------------------------------------------------------------------|
-2-2-2-2-2-2-2-2-2-2-2-2-2-2-2-2-2-2-2-2-2-2-2-2-2-2-2-2-2-2-2-2-2-2-2-2-2-2/5-5-5-5-5-5-5-5-5-5-5-5-5-|
-------------------------------------------------------------------------------------------------------|

-------------------------------------------------------|
-------------------------------------------------------|
-2-2-2-2-2-2-2-2-2-2-2-2-2/5-5-5-5-5-5-5-5-5-5-5-5-5-5-|
-------------------------------------------------------|
-------------------------------------------------------|


AFTER CHORUS:

------------------------------------------------------------------------------------|
------------------------------------------------------------------------------------|
------------------------------------------------------------------------------------|
-2--2--2-0-2-0-2-3-2-0-2--2--2-0-2-0-2-3-2-0-2--2--2-0-2-0--2-3-2-0-2--2--2-0-2-0-3-|
------------------------------------------------------------------------------------|

-----------------------------------------------------------------------------------------|
-----------------------------------------------------------------------------------------|
---------------1-1-1---------------------------1-------------7777777777------------------|
-0~-------------------------------0~------------------------------------7-5--------------|
-----------------------------------------------------------------------------------------|


Solo

----------------------------------------------|
----------------------------------------------|
----------------------------------------------|
-0-2-2-0-2-2-0-2-2-0-2-2-0-2-2-0-2-2-0-2-2--3-|
----------------------------------------------|

-------------------------------------------------|
-------------------------------------------------|
-------------------------------------------------|
-0-2-2-0-2-2-0-2-2-0-2-2-0-2-2-0-2-2-0-2-2--3--7-|
-------------------------------------------------|

------------------------------------------------------------------------------------------------|
------------------------------------------------------------------------------------------------|
--------------------------------------------------------------------------------------------3-3-|
-0-2-2-0-2-2-0-2-2-0-2-2-0-2-2-0-2-2-0-2-2--3-3--0-2-2-0-2-2-0-2-2-0-2-2-0-2-2-0-2-2-0-2-2------|
------------------------------------------------------------------------------------------------|

------------------------------------------------------------------------------------------------|
------------------------------------------------------------------------------------------------|
------------------------------------------------------------------------------------------------|
-5-5-5-5-5-5-5-5-5-5-5-5-5-5-5-5-5-5-5-5-5--6-6--5-5-5-5-5-5-5-5-5-5-5-5-5-5-5-5-5-5-5-5-5--8-8-|
------------------------------------------------------------------------------------------------|

------------------------------------------------------------------------------------------------|
------------------------------------------------------------------------------------------------|
------------------------------------------------------------------------------------------------|
-5-5-5-5-5-5-5-5-5-5-5-5-5-5-5-5-5-5-5-5-5--6-7--5-5-5-5-5-5-5-5-5-5-5-5-5-5-5-5-5-5-5-5-5--8-8-|
------------------------------------------------------------------------------------------------|

-----------|
-----------|
-----------|
-2-0-1-2-3-|
-----------|

END OF SONG:

-------------------|
-------------------|
-------------------|
-2-2-2-2--0-0-0-0--|
-------------------|

            
            
Suggest correction
Creating personal tab
Creating personal tab
You can edit any tab online and save it as your Personal.

You can edit, replace or remove any tab part or add personal notes – all changes will be seen only by you.

Personal tabs can be accessed anytime from any device, even offline.
Learn more »
comments
print report bad tab
2 comments total.
0 reply
FenderJazzBass 60 Sep 20, 2009 12:30 PM

y did u put a line for the 5th string if its not needed?

0 reply
nincompoop 101 Mar 15, 2013 11:59 AM

Should be:
--454-----
7------7-2

guest
You may want to rate the tab now too:
select rating
Wanna post a correction for this tab? Suggest correction