Oops, an error
Loading. Please wait.

Sleepwalker Tab

version 1
version 1
46,278 views 36 this week
31 commentsread comments
1 2 3 4 5
x 35
add to favorites
launch autoscroll
font size
0
reset
how to read this tab
guitar tuner
Autoscroll
slow
fast
+/-
esc
set tempo
stop
Help us to improve Ultimate-Guitar.com Take our survey!
×
Author
Difficulty
intermediate
Sleepwalker – Megadeth
United Abominations

E Standard

Intro
  
E||---------------------------|--------------------------|
B||------------0--------------|-----0-----------------0--|
G||*--------0-----0-----------|--0-----0-----------0-----|
D||*-----2-----------0-----0--|-----------0-----2--------|
A||---0-----------------2-----|--------------3-----------|
E||---------------------------|--------------------------|
  
--------------------------|--------------------------|
--------------------------|-----------0--------------|
--0-----------0--------0--|--------0-----0-----------|
-----2-----2-----2--3-----|-----2-----------0-----0--|
--------0-----------------|--0-----------------2-----|
--------------------------|--------------------------|
    
--------------------------|---------------------------||
-----0-----------------0--|---------------------------||
--0-----0-----------0-----|--0-----------0-----------*||
-----------0-----2--------|-----0-----0--------------*||
--------------3-----------|--------2------------------||
--------------------------|-----------------3--2--0---||

Build Up  
--------------------------|--------------------------|
--------------------------|--------------------------|
--------------------------|--------------------------|
--------------------------|--3--3--3--3--3--3--3--3--|
--1--1--1--1--1--1--1--1--|--1--1--1--1--1--1--1--1--|
--------------------------|--------------------------|

                            Riff1  
--------------------------||-------------------------------|
--------------------------||-------------------------------|
--3--3--3--3--3--3--3--3--||*------------------------------|
--3--3--3--3--3--3--3--3--||*------------------------------|
--1--1--1--1--1--1--1--1--||-------------------------------|
--------------------------||---0--0--0-0-0-0-0-0-0-0-0--0--|
   
--------------------------------|-------------------------------||
--------------------------------|-------------------------------||
--------------------------------|------------------------------*||
--------------------------------|---------------------------4--*||
--------------------------------|---------------------------2---||
--0-0-0-0-0-0-0-0-0--0--0-0-0-0-|--0-0-0-0-0--0--0-0-0-0-0------||


Verse Riff 
------------------------------------|----------------------------------|
------------------------------------|----------------------------------|
*-----------------------------------|----------------------------------|
*---------------------------9-8-9---|------------8---------------------|
---5-7---------10-7---------7-6-7---|------5-7---6----5-7---------10-7-|
-------0-0-0-0------0-0-0-0-------0-|--0-0-----0----0-----0-0-0-0------|
   
----------------------------------||------------------------------|
----------------------------------||------------------------------|
---------------------------------*||------------------------------|
----------9-8-9-------------8----*||------------------------------|
----------7-6-7-------5-7---6-----||------------------------------|
--0-0-0-0-------0-0-0-----0----0--||--2--2--2-0-2-0-2-3-2-0-2--2--|
     
--------------------------------|-----------------------------|
--------------------------------|-----------------------------|
--------------------------------|-----------------------------|
--------------------------------|-----------------------------|
--------------------------------|------------------------5----|
--2-0-2-0-2-3-2-0-2--2--2-0-2-0-|--2-3-2-0-2--2--2-0-2-0-3----|
  
------------------------------|----------------------------------|
------------------------------|----------------------------------|
------------------------------|----------------------------------|
------------------------------|----------------------------------|
------------------------------|------------------------4---------|
--2--2--2-0-2-0-2-3-2-0-2--2--|--2-0-2-0-2-3-2-0-2-0-2---2-0-2-0-|

    
---------------------------------|
---------------------------------|
---------------------------------|
----------------------------2--L-|
----5-----------6----------------|
--2---2-0-2-0-2---2-0-2-0-2------|


Chorus

Drover Chorus 
|------------------------------|
|------------------------------|
|------------------------------|
|------------------------------|
|------------------------------|
|--2--2--2-0-2-0-2-3-2-0-2--2--|

--------------------------------|--------------------------------|
--------------------------------|--------------------------------|
--------------------------------|--------------------------------|
--------------------------------|--------------------------------|
--------------------------------|--------------------------------|
--2-0-2-0-2-3-2-0-5--5--5-3-5-3-|--5-6-5-3-5--5--5-3-5-3-5-6-5-3-|
 
--------------------------------|---------------------------------|
--------------------------------|---------------------------------|
--------------------------------|---------------------------------|
------------------------2-3---2-|------------------4--------------|
--2--2--2-0-2-0-2-3-2-0-----5---|--3-5-2-3---2-----4--------------|
--------------------------------|----------5---3-5-2--2-2-2-2-2-2-|

---------------------------------|--------------------------------|
---------------------------------|--------------------------------|
---------------------------------|--------------------------------|
----------2----------------------|--4----------------------7------|
----------2----------------------|--4----------------------7------|
--2-2-2-2-0--0-0-0-0-0-0-0-0-0-0-|--2--2-2-2-2-2-2-2-2-2-2-5--5-5-|

---------------------------------|---------------------------------|
---------------------------------|---------------------------------|
------------------4--------------|----------7----------------------|
------------------4--------------|----------7----------------------|
------------------2--2-2-2-2-2-2-|--2-2-2-2-5--5-5-5-5-5-5-5-5-5-5-|
--5-5-5-5-5-5-5-5----------------|---------------------------------|

Mustaine Chorus   
|------------------------------|
|------------------------------|
|------------------------------|
|------------------------------|
|------------------------------|
|--2--2--2-0-2-0-2-3-2-0-2--2--|

--------------------------------|--------------------------------|
--------------------------------|--------------------------------|
--------------------------------|--------------------------------|
--------------------------------|--------------------------------|
--------------------------------|--------------------------------|
--2-0-2-0-2-3-2-0-5--5--5-3-5-3-|--5-6-5-3-5--5--5-3-5-3-5-6-5-3-|
    
--------------------------------|---------------------------|
--------------------------------|---------------------------|
--------------------------------|---------------------------|
------------------------2-3---2-|------------------4--------|
--2--2--2-0-2-0-2-3-2-0-----5---|--3-5-2-3---2-----4--------|
--------------------------------|----------5---3-5-2--------|
  
--0--------------0-----|-----------0----------|-------0--------------|
-----0--------------0--|--------------0-------|----------0-----------|
-----------------------|----------------------|-------------4--------|
--------2--------------|--4--------------7----|--L----------4--------|
--------2--------------|--4--------------7----|--L----------2--------|
--------0--------------|--2--------------5----|--L-------------------|

--0--------------0-----|
-----0--------------0--|
--------7--------------|
--------7--------------|
--------5--------------|
-----------------------|

Riff Under Drover 1st Solo
|------------------------------|
|------------------------------|
|------------------------------|
|------------------------------|
|------------------------------|
|--2--2--2-0-2-0-2-3-2-0-2--2--|
  
--------------------------------|--------------------------------|
--------------------------------|--------------------------------|
--------------------------------|--------------------------------|
--------------------------------|--------------------------------|
--------------------------------|--------------------------------|
--2-0-2-0-2-3-2-0-2--2--2-0-2-0-|--2-3-2-0-2--2--2-0-2-0-2-3-2-0-|
 
------------------------------|--------------------------------|
------------------------------|--------------------------------|
------------------------------|--------------------------------|
------------------------------|--------------------------------|
------------------------------|--------------------------------|
--2--2--2-0-2-0-2-3-2-0-2--2--|--2-0-2-0-2-3-2-0-2--2--2-0-2-0-|

--------------------------------|
--------------------------------|
--------------------------------|
--------------------------------|
--------------------------------|
--2-3-2-0-2--2--2-0-2-0-2-3-2-0-|

Solo Drover
----------------------14----14-|
--17b---------L----17----17----|
-------------------------------|
-------------------------------|
-------------------------------|
-------------------------------|

-----------17----14-------------------------------|
--17-14-17----17----17-14----14----14-14----------|
--------------------------17----17-------17-14----|
-----------------------------------------------16-|
--------------------------------------------------|
--------------------------------------------------|

--------------------------------------------|
--------------------------------------------|
--16----14-13----14-------------------------|
-----16-------16----16-14----------16-16----|
--------------------------16-15-14----------|
--------------------------------------------|

--------------------------------------------------|
--13-12-13-12-------13-12-13-12-------13-12-13-12-|
--------------14-11-------------14-11-------------|
--------------------------------------------------|
--------------------------------------------------|
--------------------------------------------------|

------------------------------12-14-12-|
--12brb-----------------14-16----------|
---------------17-16-17----------------|
---------------------------------------|
---------------------------------------|
---------------------------------------|

--14-12h-14-17p-14-19p-14-19h-20p-19-17----------|
----------------------------------------19-----L-|
-------------------------------------------------|
-------------------------------------------------|
-------------------------------------------------|
-------------------------------------------------|

Fast Riff Pre Solo                   X8
|------------------------------------|   
|------------------------------------|   
|*----------------------------------*|   
|*----------------------------------*|   
|------------------------------------|   
|---4-3-2-1-0-3-2-0-3-2-1-0-5-4-3-2--|   


Riff Under Mustaine Solo
|----------------------------------|
|----------------------------------|
|*---------------------------------|
|*---------------------------------|
|----------------------------------| 
|--0-2-2-0-2-2-0-2-2-0-2-0-3-3-3-3-|

----------------------------------|----------------------------------|
----------------------------------|----------------------------------|
----------------------------------|----------------------------------|
----------------------------------|----------------------------------|
--------------------------3-3-3-3-|----------------------------------|
--0-2-2-0-2-2-0-2-2-0-2-0---------|--0-2-2-0-2-2-0-2-2-0-2-0-3-3-3-3-|

                           X2    
----------------------------|
----------------------------|
---------------------------*|
---------------------------*|
------------------5----7----|
--0-2-2-0-2-2-0-2-3----5----|

Drover Solo
|----------------17--16-17-16--13-16-13--|
|--18--17-18-17--------------------------|
|----------------------------------------|
|----------------------------------------|
|----------------------------------------|
|----------------------------------------|

------------------------------------------------|
--17-18-17--------17----------------------------|
------------19-18----19-18-19-18-18-14-12-15-14-|
------------------------------------------------|
------------------------------------------------|
------------------------------------------------|

--------------------------------------------|
--------------------------------------------|
--14----------------------------------------|
-----15-15-14-12-15-14-12-14-12-14-12-13----|
--------------------------------------------|
--------------------------------------------|

--------------------------------------------------|
-----------------------------------------------14-|
--------------------14----------------14-15-17----|
-----------14-15-17----17-15-14-15-17-------------|
--17-16-17----------------------------------------|
--------------------------------------------------|

------------------------------------|
-----------------14-15-17-----------|
--17-15-14-15-17----------15--------|
------------------------------------|
------------------------------------|
------------------------------------|

--17-17-17-17-17-18-17-15----17-15----------------|
--------------------------18-------18-17-15-18-17-|
--------------------------------------------------|
--------------------------------------------------|
--------------------------------------------------|
--------------------------------------------------|

--------------------------------------------------|
--15-18-17-15----17-15-------15-------------------|
--------------18-------18-16----18-16-15-18-16-15-|
--------------------------------------------------|
--------------------------------------------------|
--------------------------------------------------|
                                      
                                        End Solo Riff
                                                                          3x
------------------------------------||------------------------------------||
--------------------15--------------||------------------------------------||
--18-16-15-15-16-18----18-18--------||*----------------------------------*||
------------------------------------||*----------------------------------*||
------------------------------------||------------------------------------||
------------------------------------||---4-3-2-1-0-3-2-0-3-2-1-0-5-4-3-2--||

---------------------------------|--------------------------|
---------------------------------|--------------------------|
---------------------------------|--------------------------|
---------------------------------|--------------------------|
---------------------------------|--4-----------------------|
--4-3-2-1-0-3-2-0-3-2-1-0-5-3-2--|--2-----------------------|

Order Of Play:
Intro
Build Up
Verse Riffs 2 X
Chorus
Drover 1st Solo
Verse Riffs 2 X
Fast Pre Solo Riff
Mustaine Solo
Drover 2nd Solo
End Solo Riff
Verse Riffs 
Chorus Repeat Until Fade
Suggest correction
comments
print report bad tab
31 comments total. Showing first comments. show 1 bad comment
-1 reply
buckethead_jr 6,976 Mar 23, 2007 09:13 AM

very nice, 5 stars. i love this song.

0 reply
ch715dallat 396 Mar 24, 2007 02:51 PM

shit just noticed that i forgot to add mustaines solo and the rhythm for drovers solo, any way i can add it? if you want it check out the guitar pro version i did of it. i dont know why its not in this i definitely put it in, sorry guys.

guest
You may want to rate the tab now too:
select rating
Wanna post a correction for this tab? Suggest correction