Oops, an error
Loading. Please wait.

Sudden Death Tab

version 1
version 1

Whole song

Interactive

31,503 views 12 this week
6 commentsread comments
1 2 3 4 5
accurate
x 13
add to favorites
launch autoscroll
font size
0
reset
how to read this tab
guitar tuner
Tab Pro tools
  • play this tab
  • loop segment
  • change instrument
  • show fretboard
  • metronome
×
Best way to learn
"Sudden Death"
Autoscroll
slow
fast
+/-
esc
set tempo
stop
Contributor
Megadeth - Sudden Death
2010 single

Amazing Song, unfortuantly, i don't have the lead guitar parts :[
but i have everything else, so here you go

tabs by Andy32296

I suggest that you listen to the song, for timing

+ = Palm Mute

I Learned this all by ear (Along W/ Atrocity Vendor by Slayer)For My Age, thats pretty Amazing


Intro Rhythm
|---------------------------------------------------------------------|
|---------------------------------------------------------------------|
|---------------------------------------------------------------------|
|--------------------3~~----------------------------------------------|x4
|--2~~~~-------------1~~----------------------------------------------|
|--0~~~~--------------------------------------------------------------|

|------------------------------------------------------------------------|
|------------------------------------------------------------------------|
|------------------------------------------------------------------------|
|----------2-----------------2-------------------3-----------------------|x4
|-2-----------------2--------------------1-----------------3-333-3-333---|
|--0-0-0-0---0-0-0-0--0-0-0-0---0-0-0-0-0--0-0-0---0-0-0-0-1-111-1-111---|
   + + + +   + + + +  + + + +   + + + + +  + + +   + + + + + +++ + +++

After-intro riff (0:54)
|------------------------------------|
|------------------------------------|
|------------------------------------|
|------------------------------------|x4
|------------------------------------|
|-0000-0000-00000000-0000-00000000---|



I STRONGLY SUGGEST YOU LISTEN FOR TIMING IN THIS NEXT PART
Verse riff (1:06)
|---------------------------------------------------------|
|---------------------------------------------------------|
|---------------------------------------------------------|
|---------------------------------------------------------|x3
|---------------------------------------------------------|
|-0000-0000-00000000-0000-00000000-0000-00000000-0000-0000|
  ++++ ++++ ++++++++ ++++ ++++++++ ++++ ++++++++ ++++ ++++
His evil Highness born from disaster...


|---------------------------------------------------------|
|---------------------------------------------------------|
|---------------------------------------------------------|
|---------------------------------------------------------|x2
|---------------------------------------------------------|
|-1111-1111-11111111-1111-11111111-0000-00000000-0000-0000|
  ++++ ++++ ++++++++ ++++ ++++++++ ++++ ++++++++ ++++ ++++
A blitzkrieg raining down evil...


verse ending
-------------------|
-------------------|
-------------------|
--5----------------|
----3----5---------|
------------3------|


Chorus riff
|---------------------------------------------------------|
|---------------------------------------------------------|
|-------0-------------0-------------0------------0--------|
|----2-----2-------2-----2--------2----2------2------2----|(continued)
|--2--2--2---2---2--2---2--2----3--3--3--3--3---3--3---3--|
|0------------0---------------3-----------3---------------|
 + + ++ ++ + ++  + ++ + ++ +  + + +++ ++ ++ + + ++ + + +  
While alone and left abandoned...


|-------------------------------------------------|
|-------------------------------------------------|
|------0----------0------------0------------------|
|----2----2-----2----2-------4----4-----44444444--|
|--4--4-4--4--4--4--4--4---5--5--5--5---66666666--|
|4----------4------------5-----------5--66666666--|
 + + ++++ +++ + +++ ++ + + + +++ ++ ++  ++++++++
All your angels will ignore you...

|------------------------------------------------------------------------|
|-----1~------1~-----1~------1~-----1~------1~---------------------------|
|--2--------2------2------2-------2------2-------------------------------|
|-2-2-----2--2----2-2----2-2-----2-2----2-2------------------------------|
|0-------0---------------------------------------------------------------|
|----------------4------4------3-------3--------7-7-7-7-5-5-5-5-3-3-3-3-2|
 ++++    ++ ++   ++++   ++++   + +++   ++++     + + + + + + + + + + + + +
Even still you
keep on fighting

--------------------------------|
--------------------------------|
--------------------------------|
--------------------------------|
--------------------------------|
-8-7-8-7-5-5-5-5-3-3-3-3-2-2-2-2|
 + + + + + + + + + + + + + + + +
Your sudden death from above!!

*REPEATS VERSE RIFFS (for help, listen to song for timing)

riff under solo (2:39)
|---------------------------------------------------|
|---------------------------------------------------|                       
|--4-5-4--2-4--4-5-4--2-4--7-7-7--2-2-2--4-5-4--2-4-|
|--2-3-2--0-2--2-3-2--0-2--5-5-5--0-0-0--2-3-2--0-2-|x2
|---------------------------------------------------|
|---------------------------------------------------|


(2:54)Repeat until 4:06
|---------------------------------------------------------|
|---------------------------------------------------------|
|---------------------------------------------------------|
|---------------------------------------------------------|
|---------------------------------------------------------|
|-0000-0000-00000000-0000-00000000-1111-11111111-1111-1111|

|---------------------------------------------------------|
|---------------------------------------------------------|
|---------------------------------------------------------|
|---------------------------------------------------------|
|---------------------------------------------------------|
|-2222-2222-22222222-2222-22222222-3333-33333333-4444-4444|


4:06 (Repeat all twice)
|---------------------------------------------------------|
|---------------------------------------------------------|
|---------------------------------------------------------|
|---------------------------------------------------------|
|-7777-7777-77777777-7777-77777777-8888-88888888-8888-8888|
|---------------------------------------------------------|
                                                           
|---------------------------------------------------------|
|---------------------------------------------------------|
|---------------------------------------------------------|
|----------------------------------5555-55555555-6666-6666|
|-9999-9999-99999999-9999-99999999------------------------|
|---------------------------------------------------------|

and end it off with the chorus riff


Thank You For Reading this awesome song tabs, i hope you learned something
Metallica
Slayer
Megadeth
Anthrax  FOREVER
comments
print report bad tab
6 comments total. Showing first comments.
0 reply
Heroes Of Nitro wrote on November 1 2010, 07:47 pm

Great tabs!!!!

0 reply
M149CDeath08 wrote on November 6 2010, 12:49 am

Ive been waiting for a tab like this, I really dont blame you for not having the solos, just listen to them, damn

0 reply
NejiHyuga900 wrote on December 12 2010, 12:07 pm

Actually, the ending of the verse (before the Chorus) is like this:


--------------
--------------
--------------
5-------------
--3~~~~5------
---------3~~~~


I figured that out by ear.

I want to post or [tab]
guest
You may want to rate the tab now too:
select rating
Please do not post tabs as comments. Select "correction" instead!