Oops, an error
Loading. Please wait.

Sweating Bullets Tab

version 1
version 1

Whole song

Interactive

14,301 views 15 this week
4 commentsread comments
1 2 3 4 5
x 9
add to favorites
launch autoscroll
font size
0
reset
how to read this tab
guitar tuner
Autoscroll
slow
fast
+/-
esc
set tempo
stop
Help us to improve Ultimate-Guitar.com Take our survey!
×
Author
Difficulty
advanced
(Standard Tuning) 
Chances Are The Timin Is Off. Sorry Bout That. Hope You Like It. This Is My First
Tab. So Chances Are It's Not That Accurate.

Solo Rhythm 

|--------------------------------------|
|--------------------------------------|
|--------------------------------------|
|----------------------------------3-2-|
|-------------2--------2--------2--1-0-|
|-0-0-0-0-0-0-0--0-0-0-0--0-0-0-0------|
  * * * * * *    * * *    * * *    *

|--------------------------------------|
|--------------------------------------|
|--------------------------------------|
|----------------------------------3-2-|
|-------------2--------2--------2--1-0-|
|-0-0-0-0-0-0-0--0-0-0-0--0-0-0-0------|
  * * * * * *    * * *    * * *    *

|-----------------------------------------|
|-----------------------------------------|
|-----------------------------------------|
|----------------------------------3--2---|
|-------------5--------------------1--0-3-|
|-3-3-3-3-3-3-3--3-3-3-5-5-5-5-5-5------1-|
  * * * * * *    * * * * * * * * *

|--------------------------------------|
|--------------------------------------|
|--------------------------------------|
|----------------------------------3-2-|
|-------------2--------2--------2--1-0-|
|-0-0-0-0-0-0-0--0-0-0-0--0-0-0-0------|
  * * * * * *    * * *    * * * *  *
End Rhythm Here ^

Solo (Mustaine)
|-----------------------------(12)---------------------|
|--------------------------------(12)------------------|
|-----------------------------------(12)---------------|
|--------------------------------------(12)------------|
|-----------------------------------------(12)---------|
|-3------5----6-5-1----0--12-----------------(12)-(12)-|

|-15-14-13-12-------------------------|
|-------------16-15-14-13-------------|
|-------------------------16-15-14-13-|
|-------------------------------------|
|-------------------------------------|
|-------------------------------------|
                                       
|-------------------------------------| 
|-16-15-14-13-------------------------|
|-------------16-15-14-13-------------|
|-------------------------17-16-15-14-| 
|-------------------------------------| 
                                        
|-------------------------------------| 
|-------------------------------------| 
|-16-15-14-13-------------------------| 
|-------------17-16-15-14-------------| 
|-------------------------18-17-16-15-| 
|-------------------------------------| 
                                        
|-------------------------------------| 
|-------------------------------------| 
|-------------------------------------| 
|-17-16-15-14-------------------------| 
|-------------18-17-16-15-------------| 
|-------------------------19-18-17-16-|

|-----------------------------------|
|-----------------------------------|
|-----------------------------------|
|----------------------------9----9-|
|----------10----10-12-10-12---12---|
|-12-10-12----12--------------------|

|-------------------------------|
|-------------------------------|
|---------9----9-12p10p9p10-10--|
|-12-9-12---12------------------|
|-------------------------------|
|-------------------------------|

|--------------------------------|
|--------------------------------|
|-9h10p9----9-10-12p10p9-10p9----|
|--------12-------------------12-|
|--------------------------------|
|--------------------------------|

|--------------------------------|
|--------------------------------|
|-9h10p9----9--------------------|
|--------12---12-12p10p9-10p9----|
|-----------------------------12-|
|--------------------------------|

|--------------------------------|
|--------------------------------|
|--------------------------------|
|-9h10p9----9-10-12p10p9-10p9----|
|--------12-------------------12-|
|--------------------------------|

|--------------------------------|
|--------------------------------|
|--------------------------------|
|-9------------------------------|
|---12p10-12p10----10------------|
|---------------12----12p10-12---|

|----------------------------------------|
|----------------------------------------|
|----------------------------------------|
|----------------------------------------|
|-------------------------------12-12-12-|
|-12-12-12--15-15-15--14-14-14-----------|
   *  *  *   *  *  *   *  *  *   *  *  *

|----------------------------------------|
|----------------------------------------|
|----------------------------------------|
|----------------------------------------|
|-15-15-15--14-14-14--12-12-12-----------|
|-------------------------------15-15-15-|
   *  *  *   *  *  *   *  *  *   *  *  *

|----------------------------------------|
|----------------------------------------|
|----------------------------------------|
|----------------------------------------|
|----------------------------------------|
|-14-14-14--12-12-12--14-14-14--15-15-15-|
   *  *  *   *  *  *   *  *  *   *  *  *

|-----------------------------------|
|-----------------------------------|
|-----------------------------------|
|------------------------------12---|
|-12-12-12--14-14-14--15-15-15------|
|-----------------------------------|
   *  *  *   *  *  *   *  *  *  

|-15---16---17---18---19---20---21---22---22b24---|
|----14---15---16---17---18---19---20---21--------|
|-------------------------------------------------|
|-------------------------------------------------|
|-------------------------------------------------|
|-------------------------------------------------|


End Solo


Legend:

 * = Palm Mute
(12) = Harmonics
 B = Bend
 H = Hammer-On
 P = Pull-Off

Suggest correction
comments
print report bad tab
4 comments total. Showing first comments.
0 reply
BlisteringDDj 493 Jun 03, 2008 10:56 AM

This is not correct...

0 reply
Fender_Tele'71 10 Jun 04, 2008 10:19 AM

yeah, the position is wrong, and their are tons of missing parts...

0 reply
Fender_Tele'71 10 Jul 12, 2008 02:19 AM

the "trickle down" part (15-14-13-12).. goes on too long, but the rest is actually ok..
and the position of the rhythm is wrong(again)

guest
You may want to rate the tab now too:
select rating
Wanna post a correction for this tab? Suggest correction