Oops, an error
Loading. Please wait.

Sweating Bullets Tab

version 2
version 2

Whole song

Interactive

1,064 views 1 this week
no commentswrite comment
1 2 3 4 5
please rate
add to favorites
launch autoscroll
font size
0
reset
how to read this tab
guitar tuner
Tab Pro tools
  • play this tab
  • loop segment
  • change instrument
  • show fretboard
  • metronome
×
Best way to learn
"Sweating Bullets"
Autoscroll
slow
fast
+/-
esc
set tempo
stop
Contributor
Difficulty
intermediate
Sweating Bullets Solo
Megadeth



Breakdown

       |------------------------------------------|
       |------------------------------------------|
   x3  |------------------------------------------|
       |------------------------------------------|
       |-------------2---------2---------2--------|
       |-0-0-0-0-0-0-0---0-0-0-0---0-0-0-0---6-5--|

Solo 

|-------------------------------12---|
|-------------------------------12---|
|-------------------------------12---|
|-------------------------------12---|
|-------------------------7----------|
|--3--5--6----6-5-1--0---------------|

|--15-14-13-12-------------------------------------------------------------|
|--------------16-15-14-13-------------16-15-14-13-------------------------|
|--------------------------16-15-14-13-------------16-15-14-13-------------|
|--------------------------------------------------------------17-16-15-14-|
|--------------------------------------------------------------------------|
|--------------------------------------------------------------------------|

|--------------------------------------------------------------------------|
|--------------------------------------------------------------------------|
|--16-15-14-13-------------------------------------------------------------|
|--------------17-16-15-14-------------17-16-15-14-------------------------|
|--------------------------17-16-15-14-------------17-16-15-14-------------|
|--------------------------------------------------------------17-16-15-14-|

|--------------------------------------------------------------------------|
|--------------------------------------------------------------------------|
|-------------------------------------------------10----10--12-10-9-10-----|
|------------------------------10----10--12-10-12----12--------------------|
|-----------10----10--12-10-12----12---------------------------------------|
|--12-10-12----12----------------------------------------------------------|

|--------------------------------------------------------------------------|
|--------------------------------------------------------------------------|
|--9-10-9----9-10-12-10-9-10-9----9-10-9----9------------------------------|
|---------12-------------------12--------12---12-12-10-9-10-9----9-10-9----|
|-------------------------------------------------------------12--------12-|
|--------------------------------------------------------------------------|

|--------------------------------------------------------------------------|
|--------------------------------------------------------------------------|
|--------------------------------------------------------------------------|
|--9-10-12-10-9-10-9----9-10-9----9----------------------------------------|
|--------------------12--------12---12-12-10-9-10___-----------------------|
|--------------------------------------------------------------------------|

|--------------------------------------------------------------------------|
|--------------------------------------------------------------------------|
|--------------------------------------------------------------------------|
|--------------------------------------10-10-10--9-9-9---------------------|
|-----------10-10-10--9-9-9--12-12-12------------------12-12-12---10-10-10-|
|--12-12-12----------------------------------------------------------------|

|--------------------------------------------------------------------------|
|--------------------------------------------------------------------------|
|--------------------------------------------------------------------------|
|-------------------------------------------9-9-9--10-10-10--12------------|
|--9-9-9----------9-9-9--10-10-10--12-12-12--------------------------------|
|--------12-12-12----------------------------------------------------------|

|--15----16----17----18----19----20----21----22------24______--------------|
|-----14----15----16----17----18----19----20----21-------------------------|
|--------------------------------------------------------------------------|
|--------------------------------------------------------------------------|
|--------------------------------------------------------------------------|
|--------------------------------------------------------------------------|

Outro  (1st Lick begins during note hold in tab above)

       |-------------------------|
       |-------------------------|
  x4   |-------------------------|
       |--10---------------------|
       |---8---10---9---5---2----|
       |--------8---7---3---0----|


Tabbed By: Infamous_Stoicu
comments
We did not receive enough feedback on this tab! Please rate:
print report bad tab
1 2 3 4 5
I want to post or [tab]
guest
You may want to rate the tab now too:
select rating
Please do not post tabs as comments. Select "correction" instead!