Oops, an error
Loading. Please wait.

Sweating Bullets Tab

version 1
version 1

Whole song

Interactive

148,392 views 81 this week
7 commentsread comments
1 2 3 4 5
x 15
add to favorites
launch autoscroll
font size
0
reset
how to read this tab
guitar tuner
Autoscroll
slow
fast
+/-
esc
set tempo
stop
Help us to improve Ultimate-Guitar.com Take our survey!
×
Author
Artist: Megadeth
Album: Countdown to Extinction
Song: Sweating Bullets

Tabbed by: John Mercer
E-mail: spacenumber6@hotmail.com 


[Intro] 
e|------------------------------------------------------|
B|----------------------------------------------7--4----|
G|-------4--7--6----4--3--3h4----------4--7--6--------4-|
D|-5--7------------------------5----7-------------------|
A|------------------------------------------------------|
E|------------------------------------------------------|

e|--------------------------------|
B|--------------------------------|
G|-------4--7--6----4--3--3h4-----|
D|-5--7------------------------5--|
A|--------------------------------|
E|--------------------------------|
 
[Verse]
  BbA E                    BbA E
        Hello me meet the        in my misfits way of life
        real me       
e|----------------------------------------------------------|
B|----------------------------------------------------------|
G|----------------------------------------------------------|
D|-----9------------------------9---------------------------|
A|-8-7-7--------------------8-7-7---------------------------|
E|-6-5----------------------6-5-----------------------------|

  BbA E                          BbA E
        A dark black past is my        most valued possesion
e|----------------------------------------------------------------|
B|----------------------------------------------------------------|
G|----------------------------------------------------------------|
D|-----9------------------------------9---------------------------|
A|-8-7-7--------------------------8-7-7---------------------------|
E|-6-5----------------------------6-5-----------------------------|

  BbA E                            BbA E
        Hind sight is always             but lookin' back it's  
        twenty, twenty                   still a bit fuzzy                                            
e|--------------------------------------------------------------|
B|--------------------------------------------------------------|
G|--------------------------------------------------------------|
D|-----9--------------------------------9-----------------------|
A|-8-7-7----------------------------8-7-7-----------------------|
E|-6-5------------------------------6-5-------------------------|

 BbA E                            BbA E
        Speak of mutually assured       Nice story tell it to
        destruction                     Readers Digest
                                                             Pick
                                                             Slide

e|------------------------------------------------------------------|
B|------------------------------------------------------------------|
G|------------------------------------------------------------------|
D|-----9--------------------------------9-----------------------x\--|
A|-8-7-7----------------------------8-7-7-----------------------x\--|
E|-6-5------------------------------6-5-----------------------------|

[Chorus]
  E  G  A  G     Bb         A   G      A
  Feeling         parnoid          true    enemy

   Hold Bend------------   Hold Bend--------------
 Gtr 1
e|----12--12--12--12--12-|-----11---11--11--11--11--|
B|-15b----15--15--15--15-|-14b------14--14--14--14--|
G|-----------------------|--------------------------|
D|-----------------------|--------------------------|
A|-----------------------|--------------------------|
E|-----------------------|--------------------------|
                                                   |
Gtr 2                                              |
  Pm-----------                 Pm---              |
e|-----------------------|--------------------------|
B|-----------------------|--------------------------|
G|----------------3------|--------------------------|
D|-------2--------1------|---2----------2-----------|
A|-2--5--0--5--5---------|---0---5---5--0-----------|
E|-0--3-----3--3---------|-------3---3--------------|

  E  G  A  G     Bb        A   G       F

  or false friend                             Anx-

  Hold Bend-------------   Hold Bend-------------

e|-----10--10--10--10--10-|-----9---9---9---9---9----|
B|-13b-----13--13--13--13-|-12b-----12--12--12--12---|
G|------------------------|--------------------------|
D|------------------------|--------------------------|
A|------------------------|--------------------------|
E|------------------------|--------------------------|
                                                    |
                                                    |
  Pm-----------                Pm---                |
e|------------------------|--------------------------|
B|------------------------|--------------------------|
G|----------------3-------|--------------------------|
D|-------2--------1-------|-2------------------------|
A|-2--5--0--5--5----------|-0---5---5---3------------|
E|-0--3-----3--3----------|-----3---3---1------------|


  E  G  A  G     Bb         A   G       A

  iety's attacking         me and my

  Hold Bend-------------   Hold Bend-------------

e|-----8---8---8---8---8--|-----7---7---7---7---7----|
B|-11b-----11--11--11--11-|-10b-----10--10--10--10---|
G|------------------------|--------------------------|
D|------------------------|--------------------------|
A|------------------------|--------------------------|
E|------------------------|--------------------------|
                                                    |
Gtr 2                                               |
  Pm-----------                  Pm----             |
e|------------------------|--------------------------|
B|------------------------|--------------------------|
G|----------------3-------|--------------------------|
D|-------2--------1-------|---2----------2-----------|
A|-2--5--0--5--5----------|---0---5---5--0-----------|
E|-0--3-----3--3----------|-------3---3--------------|

  A   G  A    F  A

  air is getting thin

  Hold Bend-------

e|----6--6--6--6--6---------|-------------------------|
B|-9b----9--9--9--9---------|-------------------------|
G|-------------------2/4--0-|-----Rest----------------|
D|--------------------------|-------------------------|
A|--------------------------|-------------------------|
E|--------------------------|-------------------------|
                                                     |
                                                     |
  Pm---                                              |
e|--------------------------|-------------------------|
B|--------------------------|-----Rest----------------|
G|--------------------------|-------------------------|
D|-2------2-----------------|-------------------------|
A|-0---5--0-----3--2--------|-------------------------|
E|-----3-----3--1--0--------|-------------------------|

  E  G  A  G     Bb         A   G      A

  I'm in trouble          forthe things I

   Hold Bend------------   Hold Bend--------------
 Gtr 1
e|----12--12--12--12--12-|-----11---11--11--11--11--|
B|-15b----15--15--15--15-|-14b------14--14--14--14--|
G|-----------------------|--------------------------|
D|-----------------------|--------------------------|
A|-----------------------|--------------------------|
E|-----------------------|--------------------------|
                                                   |
Gtr 2                                              |
  Pm-----------                 Pm---              |
e|-----------------------|--------------------------|
B|-----------------------|--------------------------|
G|----------------3------|--------------------------|
D|-------2--------1------|---2----------2-----------|
A|-2--5--0--5--5---------|---0---5---5--0-----------|
E|-0--3-----3--3---------|-------3---3--------------|

  E  G  A  G     Bb        A   G       F

  haven't got to yet                           I'm

  Hold Bend-------------   Hold Bend-------------

e|-----10--10--10--10--10-|-----9---9---9---9---9----|
B|-13b-----13--13--13--13-|-12b-----12--12--12--12---|
G|------------------------|--------------------------|
D|------------------------|--------------------------|
A|------------------------|--------------------------|
E|------------------------|--------------------------|
                                                    |
                                                    |
  Pm-----------                Pm---                |
e|------------------------|--------------------------|
B|------------------------|--------------------------|
G|----------------3-------|--------------------------|
D|-------2--------1-------|-2------------------------|
A|-2--5--0--5--5----------|-0---5---5---3------------|
E|-0--3-----3--3----------|-----3---3---1------------|


  E  G  A  G     Bb         A   G       A

  chomping at the bit                     and my

  Hold Bend-------------   Hold Bend-------------

e|-----8---8---8---8---8--|-----7---7---7---7---7----|
B|-11b-----11--11--11--11-|-10b-----10--10--10--10---|
G|------------------------|--------------------------|
D|------------------------|--------------------------|
A|------------------------|--------------------------|
E|------------------------|--------------------------|
                                                    |
Gtr 2                                               |
  Pm-----------                 Pm----              |
e|------------------------|--------------------------|
B|------------------------|--------------------------|
G|----------------3-------|--------------------------|
D|-------2--------1-------|---2----------2-----------|
A|-2--5--0--5--5----------|---0---5---5--0-----------|
E|-0--3-----3--3----------|-------3---3--------------|

  Bb    A   G        F  E

  palms are getting         wet.

e|-------------------------------|
B|-------------------------------|
G|-------------------------------|
D|-3-----2-----------------------|
A|-1-----0---5--------3--2-------|
E|-----------3--------1--0-------|
                                |
                                |
                                |
e|-------------------------------|
B|-------------------------------|
G|-------------------------------|
D|-3-----2-----------------------|
A|-1-----0---5--------3--2-------|
E|-----------3--------1--0-------|

  E        D  E

  Sweating Bullets

e|------------------|
B|------------------|
G|-------------7----|
D|-9--------7--9----|
A|-7--------5--7----|
E|------------------|

[Verse 2]
  BbA E                            BbA E

        Hello me it's me again           You can subdue but never
                                         tame me
e|------------------------------------------------------------------|
B|------------------------------------------------------------------|
G|------------------------------------------------------------------|
D|-----9--------------------------------9---------------------------|
A|-8-7-7----------------------------8-7-7---------------------------|
E|-6-5------------------------------6-5-----------------------------|

  BbA E                          BbA E
        It gives me a migraine         Thinking down to your
        headache                       Level
e|----------------------------------------------------------------|
B|----------------------------------------------------------------|
G|----------------------------------------------------------------|
D|-----9------------------------------9---------------------------|
A|-8-7-7--------------------------8-7-7---------------------------|
E|-6-5----------------------------6-5-----------------------------|

  BbA E                            BbA E
        Yea, just keep on thinking       and stay an inch or two 
        it's my fault                    outta kicking distance                                         
e|---------------------------------------------------------------|
B|---------------------------------------------------------------|
G|---------------------------------------------------------------|
D|-----9--------------------------------9------------------------|
A|-8-7-7----------------------------8-7-7------------------------|
E|-6-5------------------------------6-5--------------------------|


 BbA E                            BbA E
       Man kind has got to know          His limitations

                                                         Pick
                                                         Slide
e|-------------------------------------------------------------|
B|-------------------------------------------------------------|
G|-------------------------------------------------------------|
D|-----9--------------------------------9------------------x\--|
A|-8-7-7----------------------------8-7-7------------------x\--|
E|-6-5------------------------------6-5------------------------|

[Chorus 2]
  E  G  A  G     Bb         A   G      A

  Feeling                 claustrophic
  
   Hold Bend------------   Hold Bend--------------
 Gtr 1
e|----12--12--12--12--12-|-----11---11--11--11--11--|
B|-15b----15--15--15--15-|-14b------14--14--14--14--|
G|-----------------------|--------------------------|
D|-----------------------|--------------------------|
A|-----------------------|--------------------------|
E|-----------------------|--------------------------|
                                                   |
Gtr 2                                              |
  Pm-----------                 Pm---              |
e|-----------------------|--------------------------|
B|-----------------------|--------------------------|
G|----------------3------|--------------------------|
D|-------2--------1------|---2----------2-----------|
A|-2--5--0--5--5---------|---0---5---5--0-----------|
E|-0--3-----3--3---------|-------3---3--------------|

  E  G  A  G     Bb        A   G       F

  like the                 walls are closing in
                           
  Hold Bend-------------   Hold Bend-------------

e|-----10--10--10--10--10-|-----9---9---9---9---9----|
B|-13b-----13--13--13--13-|-12b-----12--12--12--12---|
G|------------------------|--------------------------|
D|------------------------|--------------------------|
A|------------------------|--------------------------|
E|------------------------|--------------------------|
                                                    |
                                                    |
  Pm-----------                Pm---                |
e|------------------------|--------------------------|
B|------------------------|--------------------------|
G|----------------3-------|--------------------------|
D|-------2--------1-------|-2------------------------|
A|-2--5--0--5--5----------|-0---5---5---3------------|
E|-0--3-----3--3----------|-----3---3---1------------|

  E  G  A  G     Bb         A   G       A

  Bloodstains               on my hands      and I

  Hold Bend-------------   Hold Bend-------------

e|-----8---8---8---8---8--|-----7---7---7---7---7----|
B|-11b-----11--11--11--11-|-10b-----10--10--10--10---|
G|------------------------|--------------------------|
D|------------------------|--------------------------|
A|------------------------|--------------------------|
E|------------------------|--------------------------|
                                                    |
Gtr 2                                               |
  Pm-----------                  Pm----             |
e|------------------------|--------------------------|
B|------------------------|--------------------------|
G|----------------3-------|--------------------------|
D|-------2--------1-------|---2----------2-----------|
A|-2--5--0--5--5----------|---0---5---5--0-----------|
E|-0--3-----3--3----------|-------3---3--------------|

  A   G  A    F  A

  don't know where I've been

  Hold Bend-------

e|----6--6--6--6--6------------|-------------------------|
B|-9b----9--9--9--9------------|-------------------------|
G|-------------------2/4--0----|-----Rest----------------|
D|-----------------------------|-------------------------|
A|-----------------------------|-------------------------|
E|-----------------------------|-------------------------|
                                                        |
                                                        |
  Pm---                                                 |
e|-----------------------------|-------------------------|
B|-----------------------------|--Rest-------------------|
G|-----------------------------|-------------------------|
D|-2------2--------------------|-------------------------|
A|-0---5--0-----3--2-----------|-------------------------|
E|-----3-----3--1--0-----------|-------------------------|


  E  G  A  G     Bb         A   G      A

  I'm in trouble          for the things I

   Hold Bend------------   Hold Bend--------------
 Gtr 1
e|----12--12--12--12--12-|-----11---11--11--11--11--|
B|-15b----15--15--15--15-|-14b------14--14--14--14--|
G|-----------------------|--------------------------|
D|-----------------------|--------------------------|
A|-----------------------|--------------------------|
E|-----------------------|--------------------------|
                                                   |
Gtr 2                                              |
  Pm-----------                 Pm---              |
e|-----------------------|--------------------------|
B|-----------------------|--------------------------|
G|----------------3------|--------------------------|
D|-------2--------1------|---2----------2-----------|
A|-2--5--0--5--5---------|---0---5---5--0-----------|
E|-0--3-----3--3---------|-------3---3--------------|

  E  G  A  G     Bb        A   G       F

  haven't got to yet                           I'm

  Hold Bend-------------   Hold Bend-------------

e|-----10--10--10--10--10-|-----9---9---9---9---9----|
B|-13b-----13--13--13--13-|-12b-----12--12--12--12---|
G|------------------------|--------------------------|
D|------------------------|--------------------------|
A|------------------------|--------------------------|
E|------------------------|--------------------------|
                                                    |
                                                    |
  Pm-----------                Pm---                |
e|------------------------|--------------------------|
B|------------------------|--------------------------|
G|----------------3-------|--------------------------|
D|-------2--------1-------|-2------------------------|
A|-2--5--0--5--5----------|-0---5---5---3------------|
E|-0--3-----3--3----------|-----3---3---1------------|


  E  G  A  G     Bb         A   G       A

  Shapening the axe                         and my

  Hold Bend-------------   Hold Bend-------------

e|-----8---8---8---8---8--|-----7---7---7---7---7----|
B|-11b-----11--11--11--11-|-10b-----10--10--10--10---|
G|------------------------|--------------------------|
D|------------------------|--------------------------|
A|------------------------|--------------------------|
E|------------------------|--------------------------|
                                                    |
Gtr 2                                               |
  Pm-----------                  Pm----             |
e|------------------------|--------------------------|
B|------------------------|--------------------------|
G|----------------3-------|--------------------------|
D|-------2--------1-------|---2----------2-----------|
A|-2--5--0--5--5----------|---0---5---5--0-----------|
E|-0--3-----3--3----------|-------3---3--------------|

  Bb    A   G        F  E

  palms are getting         wet.

e|-------------------------------|
B|-------------------------------|
G|-------------------------------|
D|-3-----2-----------------------|
A|-1-----0---5--------3--2-------|
E|-----------3--------1--0-------|
                                |
                                |
                                |
e|-------------------------------|
B|-------------------------------|
G|-------------------------------|
D|-3-----2-----------------------|
A|-1-----0---5--------3--2-------|
E|-----------3--------1--0-------|

  E        D  E

  Sweating Bullets

e|------------------|
B|------------------|
G|-------------7----|
D|-9--------7--9----|
A|-7--------5--7----|
E|------------------|

[Bridge 1]
  F           E   F       E         E  G A

 Pm----------------------------------

e|-------------------------------------------|
B|-------------------------------------------|
G|-------------------------------------------|
D|-------------2-----------2---------2-------|
A|-3-3-3-3-3-3-2---3-3-3---2---3-3-3-2--5-7--|
E|-1-1-1-1-1-1-0---1-1-1---0---1-1-1-0--3-5--|
 

  F           E   F       E         E  G A

  Pm----------------------------------

e|-------------------------------------------|
B|-------------------------------------------|
G|-------------------------------------------|
D|-------------2-----------2---------2-------|
A|-3-3-3-3-3-3-2---3-3-3---2---3-3-3-2--5-7--|
E|-1-1-1-1-1-1-0---1-1-1---0---1-1-1-0--3-5--|
 

  G                       Bb            A F

  Pm----------     Pm---   Pm-----------
 
e|-------------------------------------------|
B|-------------------------------------------|
G|-------------------------------------------|
D|-------------------------3-3-3-3-3-3-3-2---|
A|-5-5-5-5-5-5-5---5-5-5---1-1-1-1-1-1-1-0-3-|
E|-3-3-3-3-3-3-3---3-3-3-------------------1-|
 


  F           E   F       E         E  G A

   Pm----------------------------------
e|-------------------------------------------|
B|-------------------------------------------|
G|-------------------------------------------|
D|-------------2-----------2---------2-------|
A|-3-3-3-3-3-3-2---3-3-3---2---3-3-3-2--5-7--|
E|-1-1-1-1-1-1-0---1-1-1---0---1-1-1-0--3-5--|


  F           E   F       E         E  G A

   Pm----------------------------------
e|-------------------------------------------|
B|-------------------------------------------|
G|-------------------------------------------|
D|-------------2-----------2---------2-------|
A|-3-3-3-3-3-3-2---3-3-3---2---3-3-3-2--5-7--|
E|-1-1-1-1-1-1-0---1-1-1---0---1-1-1-0--3-5--|



  F           E   F       E         E  G A

  Pm----------------------------------

e|-------------------------------------------|
B|-------------------------------------------|
G|-------------------------------------------|
D|-------------2-----------2---------2-------|
A|-3-3-3-3-3-3-2---3-3-3---2---3-3-3-2--5-7--|
E|-1-1-1-1-1-1-0---1-1-1---0---1-1-1-0--3-5--|

  G                       Bb            A F

  Pm----------    Pm---   Pm-----------

e|-------------------------------------------|
B|-------------------------------------------|
G|-------------------------------------------|
D|-------------------------3-3-3-3-3-3-3-2---|
A|-5-5-5-5-5-5-5---5-5-5---1-1-1-1-1-1-1-0-3-|
E|-3-3-3-3-3-3-3---3-3-3-------------------1-|
                                            |   
                                            |
  Gtr 2                                      |
e|-------------------------------------------|
B|-------------------------------------------|
G|-------------------------------------------|
D|-------------------------------------------|
A|-------------------------------------------|
E|-3~~~~~~~~~~~~~~~~~~~~---5-----------6-5-1-|

[Solo]
  F           E   F       E                E  G A

  Pm----------------------------------------

e|--------------------------------------------------|
B|--------------------------------------------------|
G|--------------------------------------------------|
D|-------------2-----------2----------------2-------|
A|-3-3-3-3-3-3-2---3-3-3---2---3-3-3--------2--5-7--|
E|-1-1-1-1-1-1-0---1-1-1---0---1-1-1--------0--3-5--|
                                                   |
                    Rake                           |
  Pm----------------strings-------------------     |
e|------------------------12-<12>-------------------|
B|----------------------12-------<12>---------------|
G|--------------------12-------------<12>-----------|
D|-------------7---------------------------<12>-----|
A|-----------------------------------------<12>-----|
E|-0---------------------------------------<12>-----|

  F           E   F                     E   F    E   G A     

   Pm-----------------------------------------------
e|-------------------------------------|---------------------------------|
B|-------------------------------------|---------------------------------|
G|-------------------------------------|---------------------------------|
D|-------------2-----------------------|-2---------2---------------------|
A|-3-3-3-3-3-3-2---3-3-3---------------|-2---3-3-3-2--5-7----------------|
E|-1-1-1-1-1-1-0---1-1-1---------------|-0---1-1-1-0--3-5----------------|
                                                                        |
  Pm-------------------------------------------------------------       |
                                                                        |
e|-15-14-13-12-------------------------|-11-10-9-8-----------------------|
B|-------------16-15-14-13-------------|-----------12-11-10-9------------|
G|-------------------------16-15-14-13-|----------------------12-11-10-9-|
D|-------------------------------------|---------------------------------|
A|-------------------------------------|---------------------------------|
E|-------------------------------------|---------------------------------|

  F           E   F       E         E  G A

  Pm----------------------------------

e|--------------------------------------------------|
B|--------------------------------------------------|
G|--------------------------------------------------|
D|-------------2-----------2---------2--------------|
A|-3-3-3-3-3-3-2---3-3-3---2---3-3-3-2--5-7---------|
E|-1-1-1-1-1-1-0---1-1-1---0---1-1-1-0--3-5---------|
                                                   |     
  Pm----------------------------------------       |
                                                   |
e|-7-6-5-4------------------------------------------|
B|---------8-7-6-5----------8-7-6-5-----------------|
G|-----------------8-7-6-5----------8-7-6-5---------|
D|------------------------------------------9-8-7-6-|
A|--------------------------------------------------|
E|--------------------------------------------------|

  G                                   Bb            A F
  Pm-----------------------------------------------
 
e|-----------------------------------|--------------------------------|
B|-----------------------------------|--------------------------------|
G|-----------------------------------|--------------------------------|
D|-----------------------------------|-3-3-3-3-3-3-3-2----------------|
A|-5-5-5-5-5-5-5---5-5-5-------------|-1-1-1-1-1-1-1-0-3--------------|
E|-3-3-3-3-3-3-3---3-3-3-------------|-----------------1--------------|
                                                                     |
  Pm------------------       Pm----------------------                |
                                                                     |
e|-----------------------------------|--------------------------------|
B|-----------------------------------|--------------------------------|
G|-----------------------------------|----------9----9-12p10p9--10~~~-|
D|----------------------------9----9-|-12-9-12----12------------------|
A|----------10----10-12-10-12---12---|--------------------------------|
E|-12-10-12----12--------------------|--------------------------------|

  F           E   F       E         E  G A

  Pm----------------------------------

e|-----------------------------------------------------------|
B|-----------------------------------------------------------|
G|-----------------------------------------------------------|
D|-------------2-----------2---------2-----------------------|
A|-3-3-3-3-3-3-2---3-3-3---2---3-3-3-2--5-7------------------|
E|-1-1-1-1-1-1-0---1-1-1---0---1-1-1-0--3-5------------------|
                                                            |     
  Pm-----------------------------------------------         |
                                                            |
e|-----------------------------------------------------------|
B|-----------------------------------------------------------|
G|-9h10p9----9-10-12p10p9-10p9----9h10p9-7h9p7-7-------------|
D|--------12-------------------12----------------10p9-10p9p7-|
A|-----------------------------------------------------------|
E|-----------------------------------------------------------|

  F           E   F       E         E  G A

  Pm----------------------------------

e|---------------------------------------------|
B|---------------------------------------------|
G|---------------------------------------------|
D|-------------2-----------2---------2---------|
A|-3-3-3-3-3-3-2---3-3-3---2---3-3-3-2--5-7----|
E|-1-1-1-1-1-1-0---1-1-1---0---1-1-1-0--3-5----|
                                              |     
  Pm---------------------------------------   |
                                              |
e|---------------------------------------------|
B|---------------------------------------------|
G|-4h5p4---4-5-7p5-4-5p4---4-------------------|
D|-------7---------------7---7-5-7-5---5-------|
A|-----------------------------------7---7-5-7-|
E|---------------------------------------------|

  F           E   F       E         E  G A

  Pm----------------------------------

e|-------------------------------------------------|
B|-------------------------------------------------|
G|-------------------------------------------------|
D|-------------2-----------2---------2-------------|
A|-3-3-3-3-3-3-2---3-3-3---2---3-3-3-2--5-7--------|
E|-1-1-1-1-1-1-0---1-1-1---0---1-1-1-0--3-5--------|
                                                  |     
  Pm--------------------------------------------- |
                                                  |
e|-------------------------------------------------|
B|-------------------------------------------------|
G|-------------------------5-5-5-4-4-4-------------|
D|-------5-5-5-4-4-4-7-7-7-------------7-7-7-5-5-5-|
A|-7-7-7-------------------------------------------|
E|-------------------------------------------------|

  G                       Bb            A F

  Pm----------    Pm---   Pm-----------

e|------------------------------------------------|
B|------------------------------------------------|
G|------------------------------------------------|
D|-------------------------3-3-3-3-3-3-3-2--------|
A|-5-5-5-5-5-5-5---5-5-5---1-1-1-1-1-1-1-0-3------|
E|-3-3-3-3-3-3-3---3-3-3-------------------1------|
                                                 |
  Pm----------------------------------------     |
                                                 |
e|------------------------------------------------|
B|------------------------------------------------|
G|--------------------------------4-4-4-5-5-5-7~~-|
D|-4-4-4-------4-4-4-5-5-5--7-7-7-----------------|
A|-------7-7-7------------------------------------|
E|------------------------------------------------|

  F           E   F       E         E  G A

   Pm----------------------------------
e|--------------------------------------------------|
B|--------------------------------------------------|
G|--------------------------------------------------|
D|-------------2-----------2---------2--------------|
A|-3-3-3-3-3-3-2---3-3-3---2---3-3-3-2--5-7---------|
E|-1-1-1-1-1-1-0---1-1-1---0---1-1-1-0--3-5---------|
                                                   |     
  Pm--------------------------------------------   |
                                                   |
e|-15----16----17----18-----19----20----21----22----|
B|----14----15----16----17-----18----19----20----21-|
G|--------------------------------------------------|
D|--------------------------------------------------|
A|--------------------------------------------------|
E|--------------------------------------------------|

  F   C   B  G  E           F   C  B   G   E
e|--------------|----------|--------------|---------|
B|--------------|----------|--------------|---------|
G|-10-----------|----------|-10-----------|---------|
D|-10--10--9----|----------|-10--10--9----|---------|
A|-8---10--9--5-|-2--------|-8---10--9--5-|-2-------|
E|-----8---7--3-|-0--------|-----8---7--3-|-0-------|
                                                   |
                                                   |
                                                   |
e|-22b~~~~~~~~~~------------------------------------|
B|--------------------------------------------------|
G|--------------------------------------------------|
D|--------------------------------------------------|
A|--------------------------------------------------|
E|--------------------------------------------------|

F   C   B  G  E             F   C   B  G   E         F       F#
e|--------------|----------|--------------|---------|------------|
B|--------------|----------|--------------|---------|------------|
G|-10-----------|----------|-10-----------|---------|------------|
D|-10--10--9----|----------|-10--10--9----|---------|-3-------4--|
A|-8---10--9--5-|-2--------|-8---10--9--5-|-2-------|-3-------4--|
E|-----8---7--3-|-0--------|-----8---7--3-|-0-------|-1-------2--|
                                                                |
                                                                |
                                                                |
e|---------------------------------------------------------------|
B|---------------------------------------------------------------|
G|-Guitar-2-is-out-----------------------------------------------|
D|---------------------------------------------------------------|
A|---------------------------------------------------------------|
E|---------------------------------------------------------------|

[Bridge 2] x4

e|----------------------------------------------------------------|
B|*--------------------------------------------------------------*|
G|----------------------------------------------------------------|
D|----------------------------------------------------------------|
A|*5-------4-------3-------2-------1-------0-------0-------------*|
E|---0-2-3---0-2-3---0-2-3---0-2-3---0-2-3---0-2-3---3-2-1-1-1-23-|


e|---------------------|-------------------------------------|
B|---------------------|-------------------------------------|
G|---------------------|-------------------------------------|
D|-6-5-4-3-------------|-------------------------------------|
A|-------------------2-|-Hold-Chord--------------------------|
E|----------4-3-2-1--0-|-------------------------------------|


[Verse 3] 
  BbA E                            BbA E

        Well me... it's nice             A credit to dementia
        Talkin' to myself                                 

e|------------------------------------------------------------------|
B|------------------------------------------------------------------|
G|------------------------------------------------------------------|
D|-----9--------------------------------9---------------------------|
A|-8-7-7----------------------------8-7-7---------------------------|
E|-6-5------------------------------6-5-----------------------------|

  BbA E                          BbA E

        some day you too will          And smile it's blacktooth
        know my pain                   grin
e|----------------------------------------------------------------|
B|----------------------------------------------------------------|
G|----------------------------------------------------------------|
D|-----9------------------------------9---------------------------|
A|-8-7-7--------------------------8-7-7---------------------------|
E|-6-5----------------------------6-5-----------------------------|

  BbA E                            BbA E

        If the war inside my head         Won't take a day off
                                          I'll be dead                                         
e|---------------------------------------------------------------|
B|---------------------------------------------------------------|
G|---------------------------------------------------------------|
D|-----9--------------------------------9------------------------|
A|-8-7-7----------------------------8-7-7------------------------|
E|-6-5------------------------------6-5--------------------------|

 BbA E                            BbA E

       My icy fingers claw your           Here I come again
       back
                                                          Pick
                                                          Slide
e|-------------------------------------------------------------|
B|-------------------------------------------------------------|
G|-------------------------------------------------------------|
D|-----9--------------------------------9------------------x\--|
A|-8-7-7----------------------------8-7-7------------------x\--|
E|-6-5------------------------------6-5------------------------|

[Chorus 3]
  E  G  A  G     Bb         A   G      A

  Feeling         parnoid          true    enemy

   Hold Bend------------   Hold Bend--------------
 Gtr 1
e|----12--12--12--12--12-|-----11---11--11--11--11--|
B|-15b----15--15--15--15-|-14b------14--14--14--14--|
G|-----------------------|--------------------------|
D|-----------------------|--------------------------|
A|-----------------------|--------------------------|
E|-----------------------|--------------------------|
                                                   |
Gtr 2                                              |
  Pm-----------                 Pm---              |
e|-----------------------|--------------------------|
B|-----------------------|--------------------------|
G|----------------3------|--------------------------|
D|-------2--------1------|---2----------2-----------|
A|-2--5--0--5--5---------|---0---5---5--0-----------|
E|-0--3-----3--3---------|-------3---3--------------|

  E  G  A  G     Bb        A   G       F

  or false friend                             Anx-

  Hold Bend-------------   Hold Bend-------------

e|-----10--10--10--10--10-|-----9---9---9---9---9----|
B|-13b-----13--13--13--13-|-12b-----12--12--12--12---|
G|------------------------|--------------------------|
D|------------------------|--------------------------|
A|------------------------|--------------------------|
E|------------------------|--------------------------|
                                                    |
                                                    |
  Pm-----------                Pm---                |
e|------------------------|--------------------------|
B|------------------------|--------------------------|
G|----------------3-------|--------------------------|
D|-------2--------1-------|-2------------------------|
A|-2--5--0--5--5----------|-0---5---5---3------------|
E|-0--3-----3--3----------|-----3---3---1------------|

  E  G  A  G     Bb         A   G       A

 -iety's attacking         me and my

  Hold Bend-------------   Hold Bend-------------

e|-----8---8---8---8---8--|-----7---7---7---7---7----|
B|-11b-----11--11--11--11-|-10b-----10--10--10--10---|
G|------------------------|--------------------------|
D|------------------------|--------------------------|
A|------------------------|--------------------------|
E|------------------------|--------------------------|
                                                    |
Gtr 2                                               |
  Pm-----------                  Pm----             |
e|------------------------|--------------------------|
B|------------------------|--------------------------|
G|----------------3-------|--------------------------|
D|-------2--------1-------|---2----------2-----------|
A|-2--5--0--5--5----------|---0---5---5--0-----------|
E|-0--3-----3--3----------|-------3---3--------------|


  A   G  A     F  A

  air is getting thin

  Hold Bend-------

e|----6--6--6--6--6---------|-------------------------|
B|-9b----9--9--9--9---------|-------------------------|
G|-------------------2/4--0-|-----Rest----------------|
D|--------------------------|-------------------------|
A|--------------------------|-------------------------|
E|--------------------------|-------------------------|
                                                     |
                                                     |
  Pm---                                              |
e|--------------------------|-------------------------|
B|--------------------------|-----Rest----------------|
G|--------------------------|-------------------------|
D|-2------2-----------------|-------------------------|
A|-0---5--0-----3--2--------|-------------------------|
E|-----3-----3--1--0--------|-------------------------|

  E  G  A  G     Bb         A   G      A

  Feeling                 claustrophic
  
   Hold Bend------------   Hold Bend--------------
 Gtr 1
e|----12--12--12--12--12-|-----11---11--11--11--11--|
B|-15b----15--15--15--15-|-14b------14--14--14--14--|
G|-----------------------|--------------------------|
D|-----------------------|--------------------------|
A|-----------------------|--------------------------|
E|-----------------------|--------------------------|
                                                   |
Gtr 2                                              |
  Pm-----------                 Pm---              |
e|-----------------------|--------------------------|
B|-----------------------|--------------------------|
G|----------------3------|--------------------------|
D|-------2--------1------|---2----------2-----------|
A|-2--5--0--5--5---------|---0---5---5--0-----------|
E|-0--3-----3--3---------|-------3---3--------------|

  E  G  A  G     Bb        A   G       F

  like the                 walls are closing in
                           
  Hold Bend-------------   Hold Bend-------------

e|-----10--10--10--10--10-|-----9---9---9---9---9----|
B|-13b-----13--13--13--13-|-12b-----12--12--12--12---|
G|------------------------|--------------------------|
D|------------------------|--------------------------|
A|------------------------|--------------------------|
E|------------------------|--------------------------|
                                                    |
                                                    |
  Pm-----------                Pm---                |
e|------------------------|--------------------------|
B|------------------------|--------------------------|
G|----------------3-------|--------------------------|
D|-------2--------1-------|-2------------------------|
A|-2--5--0--5--5----------|-0---5---5---3------------|
E|-0--3-----3--3----------|-----3---3---1------------|

  E  G  A  G     Bb         A   G       A

  Bloodstains               on my hands      and I

  Hold Bend-------------   Hold Bend-------------

e|-----8---8---8---8---8--|-----7---7---7---7---7----|
B|-11b-----11--11--11--11-|-10b-----10--10--10--10---|
G|------------------------|--------------------------|
D|------------------------|--------------------------|
A|------------------------|--------------------------|
E|------------------------|--------------------------|
                                                    |
Gtr 2                                               |
  Pm-----------                  Pm----             |
e|------------------------|--------------------------|
B|------------------------|--------------------------|
G|----------------3-------|--------------------------|
D|-------2--------1-------|---2----------2-----------|
A|-2--5--0--5--5----------|---0---5---5--0-----------|
E|-0--3-----3--3----------|-------3---3--------------|

  Bb    A   G        F  E

  don't know where I've been

e|-------------------------------|
B|-------------------------------|
G|-------------------------------|
D|-3-----2-----------------------|
A|-1-----0---5--------3--2-------|
E|-----------3--------1--0-------|
                                |
                                |
                                |
e|-------------------------------|
B|-------------------------------|
G|-------------------------------|
D|-3-----2-----------------------|
A|-1-----0---5--------3--2-------|
E|-----------3--------1--0-------|
  
  E  G  A  G     Bb         A   G      A

               Once you committed me
                                   (committed me)

   Hold Bend------------   Hold Bend--------------
 Gtr 1
e|----12--12--12--12--12-|-----11---11--11--11--11--|
B|-15b----15--15--15--15-|-14b------14--14--14--14--|
G|-----------------------|--------------------------|
D|-----------------------|--------------------------|
A|-----------------------|--------------------------|
E|-----------------------|--------------------------|
                                                   |
Gtr 2                                              |
  Pm-----------                 Pm---              |
e|-----------------------|--------------------------|
B|-----------------------|--------------------------|
G|----------------3------|--------------------------|
D|-------2--------1------|---2----------2-----------|
A|-2--5--0--5--5---------|---0---5---5--0-----------|
E|-0--3-----3--3---------|-------3---3--------------|


  E  G  A  G     Bb        A   G       F

  Now you've           acquitted me
                                            (acquit-

  Hold Bend-------------   Hold Bend-------------

e|-----10--10--10--10--10-|-----9---9---9---9---9----|
B|-13b-----13--13--13--13-|-12b-----12--12--12--12---|
G|------------------------|--------------------------|
D|------------------------|--------------------------|
A|------------------------|--------------------------|
E|------------------------|--------------------------|
                                                    |
                                                    |
  Pm-----------                Pm---                |
e|------------------------|--------------------------|
B|------------------------|--------------------------|
G|----------------3-------|--------------------------|
D|-------2--------1-------|-2------------------------|
A|-2--5--0--5--5----------|-0---5---5---3------------|
E|-0--3-----3--3----------|-----3---3---1------------|

  E  G  A  G     Bb         A   G      A

         claiming validity
  ted me)                                  (valid-

   Hold Bend------------   Hold Bend--------------
 Gtr 1
e|----12--12--12--12--12-|-----11---11--11--11--11--|
B|-15b----15--15--15--15-|-14b------14--14--14--14--|
G|-----------------------|--------------------------|
D|-----------------------|--------------------------|
A|-----------------------|--------------------------|
E|-----------------------|--------------------------|
                                                   |
Gtr 2                                              |
  Pm-----------                 Pm---              |
e|-----------------------|--------------------------|
B|-----------------------|--------------------------|
G|----------------3------|--------------------------|
D|-------2--------1------|---2----------2-----------|
A|-2--5--0--5--5---------|---0---5---5--0-----------|
E|-0--3-----3--3---------|-------3---3--------------|


  E  G  A  G     Bb        A   G       F

          For your        stupidity           I'm
  ity)                                     (stupid-

  Hold Bend-------------   Hold Bend-------------

e|-----10--10--10--10--10-|-----9---9---9---9---9----|
B|-13b-----13--13--13--13-|-12b-----12--12--12--12---|
G|------------------------|--------------------------|
D|------------------------|--------------------------|
A|------------------------|--------------------------|
E|------------------------|--------------------------|
                                                    |
                                                    |
  Pm-----------                Pm---                |
e|------------------------|--------------------------|
B|------------------------|--------------------------|
G|----------------3-------|--------------------------|
D|-------2--------1-------|-2------------------------|
A|-2--5--0--5--5----------|-0---5---5---3------------|
E|-0--3-----3--3----------|-----3---3---1------------|

  E  G  A  G     Bb         A   G      A

  chomping        at   the bit                 I'm
  ity)

   Hold Bend------------   Hold Bend--------------
 Gtr 1
e|----12--12--12--12--12-|-----11---11--11--11--11--|
B|-15b----15--15--15--15-|-14b------14--14--14--14--|
G|-----------------------|--------------------------|
D|-----------------------|--------------------------|
A|-----------------------|--------------------------|
E|-----------------------|--------------------------|
                                                   |
Gtr 2                                              |
  Pm-----------                 Pm---              |
e|-----------------------|--------------------------|
B|-----------------------|--------------------------|
G|----------------3------|--------------------------|
D|-------2--------1------|---2----------2-----------|
A|-2--5--0--5--5---------|---0---5---5--0-----------|
E|-0--3-----3--3---------|-------3---3--------------|

  E  G  A  G     Bb        A   G       F

  sharpening            the axe                Oh

  Hold Bend-------------   Hold Bend-------------

e|-----10--10--10--10--10-|-----9---9---9---9---9----|
B|-13b-----13--13--13--13-|-12b-----12--12--12--12---|
G|------------------------|--------------------------|
D|------------------------|--------------------------|
A|------------------------|--------------------------|
E|------------------------|--------------------------|
                                                    |
                                                    |
  Pm-----------                Pm---                |
e|------------------------|--------------------------|
B|------------------------|--------------------------|
G|----------------3-------|--------------------------|
D|-------2--------1-------|-2------------------------|
A|-2--5--0--5--5----------|-0---5---5---3------------|
E|-0--3-----3--3----------|-----3---3---1------------|

  E  G  A  G     Bb         A   G       A

  Here    I       come     again              Oh!  

  Hold Bend-------------   Hold Bend-------------

e|-----8---8---8---8---8--|-----7---7---7---7---7----|
B|-11b-----11--11--11--11-|-10b-----10--10--10--10---|
G|------------------------|--------------------------|
D|------------------------|--------------------------|
A|------------------------|--------------------------|
E|------------------------|--------------------------|
                                                    |
Gtr 2                                               |
  Pm-----------                  Pm----             |
e|------------------------|--------------------------|
B|------------------------|--------------------------|
G|----------------3-------|--------------------------|
D|-------2--------1-------|---2----------2-----------|
A|-2--5--0--5--5----------|---0---5---5--0-----------|
E|-0--3-----3--3----------|-------3---3--------------|

  Bb    A   G        F  E

e|-------------------------------|
B|-------------------------------|
G|-------------------------------|
D|-------------------------------|
A|-8-----7---5--------3--2-------|
E|-6-----5---3--------1--0-------|
                                |
                                |
                                |
e|-------------------------------|
B|-------------------------------|
G|-------------------------------|
D|-------------------------------|
A|-8-----7---5--------3--2-------|
E|-6-----5---3--------1--0-------|

  E        D  E      Bb A  E

  Sweating Bullets

e|------------------|--------------|
B|------------------|--------------|
G|-------------7----|--------------|
D|-9--------7--9----|-------9------|
A|-7--------5--7----|-8--7--7------|
E|------------------|-6--5--0------|
  

symbols used in this tab:




************************************

h  Hammer
p  Pull-Off
x\ Pick Slide
\  Slide Down
/  Slide Up
b  Bend
~  Vibrato
<> Harmonics

************************************
Suggest correction
comments
print report bad tab
7 comments total. Showing first comments.
0 reply
megadeth111 10 Dec 19, 2004 12:00 AM

good

-1 reply
darksider123 10 Apr 26, 2009 01:53 AM

The verse is mixed. it is -D---7--
-A-8-5-7
-E-6---5

0 reply
TheForestKid 57 Sep 05, 2009 04:06 PM

HELLO ME
MEET THE REAL ME

guest
You may want to rate the tab now too:
select rating
Wanna post a correction for this tab? Suggest correction