Oops, an error
Loading. Please wait.

Sweating Bullets bass

version 3
version 3

Whole song

Interactive

26,954 views 12 this week
3 commentsread comments
1 2 3 4 5
x 18
add to favorites
×
Save as Personal and add changes to this tab that will be seen only by you. Learn more ›
×
You can save this tab as Personal to edit and correct it or add notes. All changes will be seen only by you. Learn more »
launch autoscroll
font size
0
reset
guitar tuner
backing track
0:00
0:00
edit
Autoscroll
slow
fast
+/-
esc
set tempo
stop
Author
Standard tuning (EADG)

[Intro] 
(0:23)
G|-------------------------|
D|-------------------------|
A|-----------21~-----------|
E|-0-~---23~------32~---23-|

G|---------------------------|
D|---------------------------|
A|------------21~----52~-----|
E|-0~----23~---------------3-|

G|--------------------------|
D|--------------------------|
A|------------21~-----------|
E|-0~----23~------32~--230--|

[Verse 1] 
(0:46)
G|-----------|         G|---------|
D|-----------|         D|---------|
A|---7-----7-|(x4)     A|---------|
E|-65----65--|         E|-14\-----|

[Chorus]
(1:10)
G|-----------------------------|
D|-----------------------------|
A|-----------------------------|
E|-0--3--5--0-3--6--5--0--6-5--|

G|-----------------------------|
D|-----------------------------|
A|-----------------------------|
E|-0--3--5--0-3--6--5--3--0-1--|

G|-----------------------------|
D|-----------------------------|
A|-----------------------------|
E|-0--3--5--0-3--6--5--0--6-5--|

G|------------------|
D|------------------|
A|------------------|
E|-0--3--5--0-1--0--|

G|-----------------------------|
D|-----------------------------|
A|-----------------------------|
E|-0--3--5--0-3--6--5--0--6-5--|

G|-----------------------------|
D|-----------------------------|
A|-----------------------------|
E|-0--3--5--0-3--6--5--3--0-1--|

G|-----------------------------|
D|-----------------------------|
A|-----------------------------|
E|-0--3--5--0-3--6--5--0--6-5--|

(1:32)
G|-------------------------|
D|-------------------------|
A|-----------------7--5-7--|
E|-6--5--3--1-0------------|

[Verse 2] 
(1:35)
G|-------------|       G|-------|
D|-------------|       D|-------|
A|----7------7-|       A|-------|
E|-65-----65---|       E|-14\---|

[Chorus] 
(1:59)
G|-----------------------------|
D|-----------------------------|
A|-----------------------------|
E|-0--3--5--0-3--6--5--0--6-5--|

G|-----------------------------|
D|-----------------------------|
A|-----------------------------|
E|-0--3--5--0-3--6--5--3--0-1--|

G|-----------------------------|
D|-----------------------------|
A|-----------------------------|
E|-0--3--5--0-3--6--5--0--6-5--|

G|------------------|
D|------------------|
A|------------------|
E|-0--3--5--0-1--0--|

G|-----------------------------|
D|-----------------------------|
A|-----------------------------|
E|-0--3--5--0-3--6--5--0--6-5--|

G|-----------------------------|
D|-----------------------------|
A|-----------------------------|
E|-0--3--5--0-3--6--5--3--0-1--|

G|-----------------------------|
D|-----------------------------|
A|-----------------------------|
E|-0--3--5--0-3--6--5--0--6-5--|
                 2:22
G|-------------------------|
D|-------------------------|
A|-----------------7--5-7--|
E|-6--5--3--1-0------------|

[Solo] 
(2:26)
G|------------------------------------------|
D|------------------------------------------|
A|------------------------------------------|
E|-0-0-0-0-0-0-0----0-0-0-0---0-0-0-0---6-5-|

G|------------------------------------------|
D|------------------------------------------|
A|------------------------------------------|
E|-0-0-0-0-0-0-0----0-0-0-0---0-0-0-0---6-5-|
                                              (x4)
G-------------------------------------------|
D-------------------------------------------|
A-------------------------------------------|
E-3-3-3-3-3-3-3----3-3-3-5-5-5-5-5-5-6--5-1-|

G|------------------------------------------|
D|------------------------------------------|
A|------------------------------------------|
E|-0-0-0-0-0-0-0----0-0-0-0---0-0-0-0---6-5-|

[Bridge] 
(3:12)
G|------------|
D|------------|  (x2)
A|-8----------|
E|---8-7-3-0--|

G|-------------|
D|-8-----------|
A|---8-7-3-0---|
E|-------------|

G|--8-------------------------------|
D|----8-7-3-0-----------------------|
A|----------------------------------|
E|----------------------1-----2-----|

[Bridge 2] 
(3:29)
G-------------------------------|
D-------------------------------|
A-5-----4-----3-----2-----1-----|
E---023---023---023---023---023-|
                                 (x4)
G-------------------------------|
D-------------------------------|
A-------0-----------------------|
E-0-2-3---0-2-3-4-3-2-1-0-1-2-3-|

G|-----------------------|
D|-----------------------|
A|--11-10-9-8------------|
E|------------4-3-2-1-0~-|

[Verse 3] 
(4:09)
G|-----------|      G|-------|
D|-----------|      D|-------|
A|---7-----7-|(x4)  A|-------|
E|-65----65--|      E|-14\---|

[Chorus] 
(4:33)
G|-----------------------------|
D|-----------------------------|
A|-----------------------------|
E|-0--3--5--0-3--6--5--0--6-5--|

G|-----------------------------|
D|-----------------------------|
A|-----------------------------|
E|-0--3--5--0-3--6--5--3--0-1--|

G|-----------------------------|
D|-----------------------------|
A|-----------------------------|
E|-0--3--5--0-3--6--5--0--6-5--|

G|------------------|
D|------------------|
A|------------------|
E|-0--3--5--0-1--0--|

G|-----------------------------|
D|-----------------------------|
A|-----------------------------|
E|-0--3--5--0-3--6--5--0--6-5--|

G|-----------------------------|
D|-----------------------------|
A|-----------------------------|
E|-0--3--5--0-3--6--5--3--0-1--|

G|-----------------------------|
D|-----------------------------|
A|-----------------------------|
E|-0--3--5--0-3--6--5--0--6-5--|

G|-------------------------|
D|-------------------------|
A|-----------------7-------|
E|-6--5--3--1-0------------|

[Post-Chorus] 
(part 1) 
(4:57)
G|-----------------------------------|
D|-----------------------------------|
A|-----------------------------------|
E|-000-333555-333-666-555-333-555----|
                                     (x3)
G----------------------------------|
D----------------------------------|
A----------------------------------|
E-000-333-555-333-666-555-333-111--|

G|----------------------------------|
D|----------------------------------|
A|----------------------------------|
E|-000-333-555-333-666-555-333-555--|

[Outro]
(5:17)
G|--------------------------|
D|--------------------------|
A|------------7--5-7------7-|
E|-6-5-3-1-0------------65--|


************************************

| ~  Vibrato
| \  Slide down  

************************************

            
            
Suggest correction
Creating personal tab
Creating personal tab
You can edit any tab online and save it as your Personal.

You can edit, replace or remove any tab part or add personal notes – all changes will be seen only by you.

Personal tabs can be accessed anytime from any device, even offline.
Learn more »
comments
print report bad tab
3 comments total.
0 reply
Shouryu 10 Sep 06, 2009 07:04 PM

Awesome Tab

+1 reply
Brotherbrodude 221 Jan 25, 2013 06:58 AM

Yea. I just got confused at first about the 23, 32 stuff. Then i realized you forgot to space. I was about to say, "Wait a second, Ellefson doesn't use a 32 fret bass." Not even sure they make those.

+1 reply
thickice19 10 Feb 18, 2014 08:29 AM

Bridge and Bridge 2 seem off. They're close but something isn't right. Not sure how to correct it, or what would be correct, but it feels like too many notes when comparing it with the master bass track and my own playing. But other than that close tab.

guest
You may want to rate the tab now too:
select rating
Wanna post a correction for this tab? Suggest correction