Oops, an error
Loading. Please wait.

Symphony Of Destruction Demo Tab

13 views 1 this week
1 commentread comment
1 2 3 4 5
1 last vote to show rating
add to favorites
launch autoscroll
font size
0
reset
how to read this tab
guitar tuner
Autoscroll
slow
fast
+/-
esc
set tempo
stop
Help us to improve Ultimate-Guitar.com Take our survey!
×
Author
Difficulty
intermediate
About this tab version
This is for the extended version of Symphony Of Destruction. Tab includes an additional solo rhythm, a rearranged chorus, the post-solo breakdown, and lastly, Dave Mustaine's solo. The extended version/demo version is on the Countdown To Extinction CD as a bonus track. Was this info helpful? Yes No
This is for the extended version/demo version of "Symphony Of Destruction". 

RIFF 1 INTRO x1

e|---------------------------------------------------------------------------|
B|---------------------------------------------------------------------------|
G|---------------------------------------------------------------------------|
D|---------------------------------------------------------------------------|
A|-3-2-2-x---3-2-2-x----------3-2-2-x---------------------------------------|
E|-1-0-0-x---1-0-0-x---1-3-1--1-0-0-x---------------------------------------|


RIFF 1A INTRO x1
e|---------------------------------------------------------------------------|
B|---------------------------------------------------------------------------|
G|---------------------------------------------------------------------------|
D|---------------------------------------------------------------------------|
A|-3-2-2-x---3-2-2-----------------------------------------------------------|
E|-1-0-0-x---1-0-0-----------------------------------------------------------|


RIFF 2 INTRO X2
e|---------------------------------------------------------------------------|
B|---------------------------------------------------------------------------|
G|---------------------------------------------------------------------------|
D|-----7---6---5-------------------------------------------------------------|
A|-----7---6---5-------------------------------------------------------------|
E|-0-0---0---0---------------------------------------------------------------|


FILL 1 INTO VERSE x1
e|---------------------------------------------------------------------------|
B|---------------------------------------------------------------------------|
G|---------------------------------------------------------------------------|
D|---------------------------------------------------------------------------|
A|---------3-2-2-x-----------------------------------------------------------|
E|-1-3-1---1-0-0-x-----------------------------------------------------------|


RIFF 1B INTO VERSE x1
e|---------------------------------------------------------------------------|
B|---------------------------------------------------------------------------|
G|---------------------------------------------------------------------------|
D|---------------------------------------------------------------------------|
A|--------3-2-2-x--3-2-2-----------3-2-2-x-----------------------------------|
E|-1-3-1--1-0-0-x--1-0-0----1-3-1--1-0-0-x-----------------------------------|


RIFF 1 VERSE x3


RIFF 2A PRE-CHORUS x1

  BOTH x1                  MUSTAINE x5           
e|----------------------| |-------------------| 
B|----------------------| |-------------------|
G|----------------------| |-------------------|
D|-----7---6---5--5h7p5-| |-7---6---5--5h7p5--|
A|-----7---6---5--------| |-7---6---5---------|
E|-0-0---0---0----------| |---0---0-----------|

  FRIEDMAN x2              FRIEDMAN x3
e|---------------------|  |-------------------|
B|---------------------|  |-------------------|
G|--------------4h5p4--|  |------------5h6p5--|
D|-7---6---5-----------|  |-7---6---5---------|
A|-7---6---5-----------|  |-7---6---5---------|
E|---0---0-------------|  |---0---0-----------|

  BOTH x1
e|-------------------------------|
B|-------------------------------|
G|-------------------------------|
D|-7---6---5---------------------|
A|-7---6---5-----5---------------|
E|---0---0---0-0---6-5-4-3-2-1-0-|


RIFF 3 CHORUS x1
e|---------------------------------|
B|---------------------------------|
G|---------------------------------|
D|-9-----8---7---6--------5---4----|
A|---7----7---5-----7------3---3---|
E|-----0---0---0-----7\\----0---0--|

FILL 2 CHORUS x1
e|-------------|
B|-------------|
G|-------------|
D|-7----5-4----|
A|--5------5---|
E|---0-------7-|

RIFF 3 CHORUS x1

FILL 3 CHORUS x1
e|-----------|
B|-----------|
G|-----------|
D|-7-7-7-7-7-|
A|-5-5-5-5-5-|
E|-----------|

RIFF 1 VERSE x6

RIFF 2A PRE-CHORUS x1

RIFF 3 CHORUS x1
FILL 2 CHORUS x1
RIFF 3 CHORUS x1
FILL 3 CHORUS x1

RIFF 1 VERSE x6

RIFF 2A PRE-CHORUS x1

RIFF 3 CHORUS X1
FILL 2 CHORUS X1
RIFF 3 CHORUS X1
FILL 3 CHORUS X1

RIFF 3A CHORUS x1

MUSTAINE
e|---------------------------------|
B|---------------------------------|
G|---------------------------------|
D|-9-----8---7---6--------5---4----|
A|---7----7---5-----7------3---3---|
E|-----0---0---0-----7\\----0---0--|

FRIEDMAN
e|-------------------------------------|
B|-------------------------------------|
G|-------------------------------------|
D|-12-----11---10---9--------9---7-----|
A|---11----10---10-----11------7---7---|
E|-----12---10---12-----12\\----0---0--|

FILL 2A CHORUS x1

MUSTAINE
e|-------------|
B|-------------|
G|-------------|
D|-7----5-4----|
A|--5------5---|
E|---0-------7-|

FRIEDMAN
e|----------------|
B|----------------|
G|----------------|
D|-12----9-7------|
A|---9------9-----|
E|----0--------10-|

RIFF 3A CHORUS x1
FILL 2A CHORUS x1

FILL 3A CHORUS x1

MUSTAINE
e|-------------|
B|-------------|
G|-------------|
D|-5-----4-----|
A|--3------3---|
E|---0-------0-|


FRIEDMAN
e|------------|
B|------------|
G|------------|
D|-9----7-----|
A|--7-----7---|
E|---0------0-|

BOTH

e|---------------|
B|---------------|
G|---------------|
D|-7-7-7-7-7-----|
A|-5-5-5-5-5-----|
E|-----------0-0-|


SOLO 1 FRIEDMAN
e|--------------------------------------------|
B|--------------------------------------------|
G|-/9-9~~~---9~9~~~---9-7\4-6b7~~-7b9---3b4~~-|
D|--------------------------------------------|
A|--------------------------------------------|
E|--------------------------------------------|

E|------------------------|
B|------------------------|
G|-0-2-0-2b3r2~----0------|
D|--------------------2~~-|
A|------------------------|
E|------------------------|

e|--------------------8-12----8-12/14p12---|
B|-----------------10------10-----------13-|
G|----9-11----9-11-------------------------|
D|-10------10------------------------------|
A|-----------------------------------------|
E|-----------------------------------------|

e|-12-14/17p14\12----12-14/20-17h20p17------------|
B|----------------13-------------------19-17------|
G|-------------------------------------------17~~-|
D|------------------------------------------------|
A|------------------------------------------------|
E|------------------------------------------------|

e|--------------------------------------------------|
B|-/12p10----10-12p10----10-15p10----15p10----14p10-|
G|--------12----------12----------12-------12-------|
D|--------------------------------------------------|
A|--------------------------------------------------|
E|--------------------------------------------------|

e|-12p10----10-12p10----10-15p10----15p10----14p10--|
B|-------12----------12----------12-------12--------|
G|--------------------------------------------------|
D|--------------------------------------------------|
A|--------------------------------------------------|
E|--------------------------------------------------|

e|-15p10----10/19p15----15-19p15--15-|
B|-------12----------15---------15---|
G|-----------------------------------|
D|-----------------------------------|
A|-----------------------------------|
E|-----------------------------------|

e|-19p15----------------------------------------|
B|------15-----15-------------------------------|
G|--------16-----16-------------------14b16~~~--|
D|----------17-----17\12-14-12p11h12------------|
A|----------------------------------------------|
E|----------------------------------------------|

e|-----------------------------------------------|
B|-----------------12h13p12----------------12h13-|
G|-/16p12----12-15----------15p12----12-15-------|
D|--------14----------------------14-------------|
A|-----------------------------------------------|
E|-----------------------------------------------|

e|-15-------------------------12---------------------------|
B|---13p12-----------------12----15p12---------------------|
G|--------15p12---12-14h15-------------15p14-12----13b14~~-|
D|--------------14------------------------------14---------|
A|---------------------------------------------------------|
E|---------------------------------------------------------|

e|-----12-15-[15]17r15b17~--15-12--------------|
B|-/16----------------------------16-15-12-12\-|
G|---------------------------------------------|
D|---------------------------------------------|
A|---------------------------------------------|
E|---------------------------------------------|

RIFF 2 UNDER SOLO 1 x16

SOLO 2 MUSTAINE
e|------------------------------|
B|------------------------------|
G|------------------------------|
D|-----7~------5~------7~-6~-5~-|
A|-7-5-----7-5-----7-5----------|
E|------------------------------|

e|-------------------------------|
B|-------------------------------|
G|-------------------------------|
D|-------------------------------|
A|-7-5-7~--5---5~----------------|
E|-----------8----8-5-8~--5-3-5~-|

e|---------------------------------|
B|---------------------------------|
G|---------------------------------|
D|------------------------------5~-|
A|--------------5~----5-7~--5-7----|
E|-3-5-/8~--5-8-----8--------------|
                                      x2
e|-------------------------------------|
B|-------------------------------------|
G|--------14--------12--------14-13-12-|
D|-/14-12-14--14-12-12--14-12-14-13-12-|
A|-------------------------------------|
E|-------------------------------------|

e|--------------------------------------------------|
B|--------------------------------------------------|
G|--------------------------------------------------|
D|-14-12-14~--12-10-12~--10----10~------------------|
A|--------------------------12------12-10-12~-10----|
E|-----------------------------------------------12-|

e|------------------------------------------|
B|---------------------------------13h15h17-|
G|-------------------------12h14h16---------|
D|-----------------12h14h15-----------------|
A|---------12h14h15-------------------------|
E|-12h14h15---------------------------------|

e|-----------------------------------19p17p15--------|
B|-----------------13h15/17-15h17h19---------19-17~~-|
G|---------12h14h16----------------------------------|
D|-12h14h15------------------------------------------|
A|---------------------------------------------------|
E|---------------------------------------------------|


RIFF 2B UNDER SOLO 2 x8
e|---------------------------|
B|---------------------------|
G|---------------------------|
D|-----7------5------7--6--5-|
A|-----7------5------7--6--5-|
E|-0-0----0-0----0-0---------|


RIFF 2C BREAK X1

  X1                       X13
e|----------------------| |-------------------| 
B|----------------------| |-------------------|
G|----------------------| |-------------------|
D|-----7---6---5--5h7p5-| |-7---6---5--5h7p5--|
A|-----7---6---5--------| |-7---6---5---------|
E|-0-0---0---0----------| |---0---0-----------|

X1
e|-------------------------------|
B|-------------------------------|
G|-------------------------------|
D|-7---6---5---------------------|
A|-7---6---5-----5---------------|
E|---0---0---0-0---6-5-4-3-2-1-0-|

RIFF 3A CHORUS x1
FILL 2A CHORUS x1
RIFF 3A CHORUS x1
FILL 2A CHORUS x1
FILL 3A CHORUS x1

FILL 4 OUTRO x1
e|---------|
B|---------|
G|---------|
D|---------|
A|-3-2-2-x-|
E|-1-0-0-x-|

************************************

| x   Dead note
| p   Pull-off
| b   Bend
| br  Bend release
| pb  Pre-bend
| pbr Pre-bend release
| /   Slide up
| \   Slide down

************************************
Suggest correction
Give kudos to tab author, rate the tab!
1 2 3 4 5
comments
print report bad tab
1 comment total.
0 reply
joshybee1995 87 2 days ago

Been looking all over for a tab that has that mustaine solo in and such a great tab well done

guest
You may want to rate the tab now too:
select rating
Wanna post a correction for this tab? Suggest correction