Oops, an error
Loading. Please wait.
We have an official Symphony Of Destruction tab made by UG professional guitarists. Check out the tab »
×
75,306 views 36 this week
8 commentsread comments
1 2 3 4 5
x 7
add to favorites
launch autoscroll
font size
0
reset
how to read this tab
guitar tuner
backing track
0:00
0:00
×
Best way to learn
"Symphony Of Destruction"
Autoscroll
slow
fast
+/-
esc
set tempo
stop
Author
Symphony of Destruction Solo-Megadeth

  Marty:
e|---------0--0--0--0-----------------|--------------------------|
B|----3/5--5--5--5--5~~~~~~-----(5)\3-|-3\5-----5~~---5\3-----3b-|
G|------------------------------------|--------------------4-----|
D|------------------------------------|--------------------------|
A|------------------------------------|--------------------------|
E|------------------------------------|--------------------------|
                                                                |
  Dave:                                                         |
e|------------------------------------|--------------------------|
B|------------------------------------|--------------------------|
G|------------------------------------|--------------------------|
D|-7-------6-----------5------------7-|------6-----5-----------7-|
A|-7-------6-----------5------------7-|------6-----5-----------7-|
E|----0----------0---------0--0--0----|---0-----0-----0--0--0----|

       Ab          G            A         Ab    G           A
                                                      Pm-----
e|----------------------------------|--------------------------|
B|-------------------------5\-------|--------------------------|
G|----------------------7b-------3b-|--------------------------|
D|----------------------------------|------------------5--7--5-|
A|----------------------------------|--------------------------|
E|----------------------------------|--------------------------|
                                                              |
                                                              |
e|----------------------------------|--------------------------|
B|----------------------------------|--------------------------|
G|----------------------------------|--------------------------|
D|------6-----------5------------7--|------6-----5-----------7-|
A|------6-----------5------------7--|------6-----5-----------7-|
E|-0----------0---------0--0--0-----|---0-----0-----0--0--0----|

       Ab          G            A         Ab    G              A
e|----------------------------------|------------------------------|
B|----------------------------------|------------------------------|
G|----------------------------------|------------------------------|
D|-7brb(Gradual Bend)------------7b-|------5-----5--------------9\-|
A|----------------------------------|---------7-----7--7~~~--------|
E|----------------------------------|------------------------------|
                                                                  |
                                                                  |
e|----------------------------------|------------------------------|
B|----------------------------------|------------------------------|
G|----------------------------------|------------------------------|
D|------6-----------5------------7--|------6-----5--------------7--|
A|------6-----------5------------7--|------6-----5--------------7--|
E|-0----------0---------0--0--0-----|---0-----0--------0--0--0-----|

      Ab           G                    A
e|------------------------12-------12/14----12-|
B|------------------10-13----10-13-------13----|
G|-----9-11----9-11----------------------------|
D|-/10------10---------------------------------|
A|---------------------------------------------|
E|---------------------------------------------|
                                              |
                                              |
e|---------------------------------------------|
B|---------------------------------------------|
G|---------------------------------------------|
D|------6-----------5--------------------7-----|
A|------6-----------5--------------------7-----|
E|-0----------0-----------0-----0-----0--------|

        Ab             G                  A
e|-14-17p14p12----14/20-17h20p17--------------|
B|-------------13----------------19-17--------|
G|-------------------------------------17~~~\-|
D|--------------------------------------------|
A|--------------------------------------------|
E|--------------------------------------------|
                                             |
                                             |
e|--------------------------------------------|
B|--------------------------------------------|
G|--------------------------------------------|
D|--------6-------------5------------------7--|
A|--------6-------------5------------------7--|
E|-0--------------0---------0--0--0-----------|

         Ab          G                       A
e|--------------------------------------------------|
B|-/12p10----10-12p10----10-15p10----15p10----14p10-|
G|--------12----------12----------12-------12-------|
D|--------------------------------------------------|
A|--------------------------------------------------|
E|--------------------------------------------------|
                                                   |
                                                   |
e|--------------------------------------------------|
B|--------------------------------------------------|
G|--------------------------------------------------|
D|--------6-----------5-----------------------7-----|
A|--------6-----------5-----------------------7-----|
E|--0-----------0------------0----0------0----------|

         Ab          G                          A
e|-----------------------------------------------------|
B|-17p15-----15-17p15----20p15--------20p15------19p15-|
G|--------16----------16----------16--------16---------|
D|-----------------------------------------------------|
A|-----------------------------------------------------|
E|-----------------------------------------------------|
                                                      |
                                                      |
e|-----------------------------------------------------|
B|-----------------------------------------------------|
G|-----------------------------------------------------|
D|--------6-----------5--------------------------7-----|
A|--------6-----------5--------------------------7-----|
E|--0-----------0-----------0-----0---------0----------|

        Ab             G                             A
e|----------------19p15----15-19h22p19----19-------------|
B|-20p15----15----------15-------------20----20----------|
G|-------16----16-------------------------------19-------|
D|-------------------------------------------------21----|
A|----------------------------------------------------22-|
E|-------------------------------------------------------|
                                                        |
                                                        |
e|-------------------------------------------------------|
B|-------------------------------------------------------|
G|-------------------------------------------------------|
D|--------6-------------5-----------------------------7--|
A|--------6-------------5-----------------------------7--|
E|--0-----------0----------------0------0----0-----------|

        Ab          G                       A
e|-------------------------------------------------|
B|-15----------------------------------------------|
G|----16-------------------14b~~~~~~~~~\-----------|
D|-------17----14----------------------------------|
A|----------17----17-16h17-------------------------|
E|-------------------------------------------------|
                                                  |
                                                  |
e|-------------------------------------------------|
B|-------------------------------------------------|
G|-------------------------------------------------|
D|--------6-----------5----------------------7-----|
A|--------6-----------5----------------------7-----|
E|--0-----------0-----------0-----0-----0----------|

         Ab           G                      A
e|--------------------------------------------------|
B|-----------------12-13p12----------------12-13----|
G|-/16p12----12-15----------15-12----12-15----------|
D|--------14----------------------14----------------|
A|--------------------------------------------------|
E|--------------------------------------------------|
                                                   |
                                                   |
e|--------------------------------------------------|
B|--------------------------------------------------|
G|--------------------------------------------------|
D|---------6-----------5----------------------7-----|
A|---------6-----------5----------------------7-----|
E|---0-----------0-----------0-----0-----0----------|

        Ab           G                         A
e|----------------------------12-------------------|
B|-13p12-------------------12----15p12-------------|
G|-------15-12----12-14-15-------------15-14p12----|
D|-------------14-------------------------------14-|
A|-------------------------------------------------|
E|-------------------------------------------------|
                                                  |
                                                  |
e|-------------------------------------------------|
B|-------------------------------------------------|
G|-------------------------------------------------|
D|--------6-----------5-------------------------7--|
A|--------6-----------5-------------------------7--|
E|--0-----------0-----------0-----0----0-----------|

         Ab          G                       A
e|-----------------12--------12-----------12-----------|
B|--------------12----15p12-----15p12--------15p12-----|
G|-13b~~~~----------------------------14b----------14b-|
D|-----------------------------------------------------|
A|-----------------------------------------------------|
E|-----------------------------------------------------|
                                                      |
                                                      |
e|-----------------------------------------------------|
B|-----------------------------------------------------|
G|-----------------------------------------------------|
D|--------6-----------5-----------------------7--------|
A|--------6-----------5-----------------------7--------|
E|--0-----------0-----------0-----0--------------------|

      Ab            G                     F E
e|-12------------12-------12-17b--------|-(17)\------------|
B|-----15p12--------15p12----17b--------|-(17)\------------|
G|-----------14b------------------------|------------------|
D|--------------------------------------|------------------|
A|--------------------------------------|------------------|
E|--------------------------------------|------------------|
                                                          |
                                                          |
e|--------------------------------------|------------------|
B|--------------------------------------|------------------|
G|--------------------------------------|------------------|
D|-----6-------------5------------------|--3-2--2----------|
A|-----6-------------5------------------|--3-2--2----------|
E|--0--------0---------------0--0--0--0-|--1-0--0----------|

Tabbed by: Sassi93

************************************

| b  Bend
| /  Slide up
| \  Slide down
| ~  Vibrato
| h  Hammer-on
| p  Pull-off

************************************
Suggest correction
comments
print report bad tab
8 comments total. Showing first comments.
+2 reply
BLOODLETTING 10 Apr 08, 2007 07:12 PM

Stolen off someone else's tab. Lame.

+3 reply
shellshock1911 40 Jun 08, 2007 08:58 AM

Copied and pasted

+1 reply
Metal101 31 Jul 20, 2007 10:19 AM

yes it is stolen. Still fairly correct nonetheless

guest
You may want to rate the tab now too:
select rating
Wanna post a correction for this tab? Suggest correction