Oops, an error
Loading. Please wait.

Symphony Of Destruction Tab

version 2
30,628 views 54 this week
no commentswrite comment
1 2 3 4 5
accurate
x 6
add to favorites
launch autoscroll
font size
0
reset
how to read this tab
guitar tuner
Autoscroll
slow
fast
+/-
esc
set tempo
stop
Help us to improve Ultimate-Guitar.com Take our survey!
×
Contributor
I got this Solo from a good source. I would like people to post corrections so I can 
the best way possible to learn how to play this song. Thank You.


Solo:
|--------------------|---------------------|--------------------|
|---h----------------|---------0--5ub+2r\--|--------------------|
|--7-9~~9~~9\7--4--6b|+1-(6)~~-0--7ub+2r\2b|+2----(2)---0--2--0-|
|--------------------|---------------------|--------------------|
|--------------------|---------------------|--------------------|
|--------------------|---------------------|--------------------|

|--------------------|--------------------|------------8-12--8-12/14-12--12|
|--------------------|--------------------|----------10----10----------13--|
|2pb+1cb+2r(2)b+1cb+2|2b+1r-0---0---------|9-11--9-11----------------------|
|--------------------|--------2---0-2-2/10|----10--------------------------|
|--------------------|--------------------|--------------------------------|
|--------------------|--------------------|--------------------------------|


|14-17-14--17-14-17/20-17/20\17\14---------------p---------p---------p----|
|--------17-----------------------17-13~~(13)\/12-10--10-12-10--10-15-10--|
|---------------------------------------------------12--------12--------12|
|-------------------------------------------------------------------------|
|-------------------------------------------------------------------------|
|-------------------------------------------------------------------------|

               p         p        p      p      p     p         p
|--p------p--12-10--10-12-10-----15-10--15-10--14-10-15-10--10-19-15--15-|
|15-10--14-10-----12--------12--------12-----12-----------12--------15---|
|-----12-----------------------------------------------------------------|
|------------------------------------------------------------------------|
|------------------------------------------------------------------------|
|------------------------------------------------------------------------|

   p
|22-19--19--p--------------------------------------------------------------|
|-----20--20-15------p-------------------------------------------p---------|
|--------------16--19-16------------------------------------14/15-12--12-15|
|----------------17-----17------p--p--h--19b+2--(19)~~(19)\---------14-----|
|-------------------------17--19-17-16-17----------------------------------|
|--------------------------------------------------------------------------|


|-----p-------------------p----p-------------------12--p-------------------|
|12-13-12--p---------12-13-0-13-12--p------------12--15-12-----p-----------|
|--------15-12--12-15-------------15-12--12-14b+2---------15-14-12--12b+2~~|
|-------------14-----------------------14-------------------------14-------|
|--------------------------------------------------------------------------|
|--------------------------------------------------------------------------|

|------12--p-----------12--p---------12--p---------12--p-------12--p--12-|
|--------15-12--15b+2----15-12-----12--15-12-----12--15-12-------15-12---|
|(12)~~-----------------------14b+2---------14b+2---------14b+2----------|
|------------------------------------------------------------------------|
|------------------------------------------------------------------------|
|------------------------------------------------------------------------|
comments
print report bad tab
I want to post or [tab]
guest
You may want to rate the tab now too:
select rating
Please do not post tabs as comments. Select "correction" instead!