Oops, an error
Loading. Please wait.

Symphony Of Destruction Tab

version 3
2,469 views 1 this week
no commentswrite comment
1 2 3 4 5
please rate
add to favorites
launch autoscroll
font size
0
reset
how to read this tab
guitar tuner
Autoscroll
slow
fast
+/-
esc
set tempo
stop
Help us to improve Ultimate-Guitar.com Take our survey!
×
Author
Difficulty
advanced
Note: This is my first attempt at tabbing something, so if some parts do not make sense, I
apologize.  These are my alternate fingerings for the Symphony of Destruction solo.

b= bend to fret given
p= pulloff
h= hammer-on
T= tapped note
s= slide
/= slide up
\= slide down


Part I:
E|---------------------------------------------------------------------------------|
B|---------------------------------------------------------------------------------|
G|/9-9-9~---/9-9-9p7---6b7--7b8r7--------------------------------------------------|
D|-------------------9------------8b10--5-7-5-7b8r7(slowly bend up--7b8-5---5------|
A|---------------------------------------------------a half step)---------7---7-7~-|
E|---------------------------------------------------------------------------------|

Part II:
E|-----------------------T--------T--------------17-14h17p14s12---12s14-17s20-17h20p17------------|
B|-----------------10h13h17-10h13h17s19s17p13p10---------------13-----------------------19-17s13--|
G|----9h11----9h11--------------------------------------------------------------------------------|
D|/10------10-------------------------------------------------------------------------------------|
A|------------------------------------------------------------------------------------------------|
E|------------------------------------------------------------------------------------------------|

Part III:
E|-T----------T----------T-------T-------T-----T-----------T-----------T--------T--------T-----|
B|12p10p8h10-12p10p8h10-15p10p8-15p10p8-14p10-17p15p12h15-17p15p12h15-20p15p12-20p15p12-19p15--|
G|---------------------------------------------------------------------------------------------|
D|---------------------------------------------------------------------------------------------|
A|---------------------------------------------------------------------------------------------|
E|---------------------------------------------------------------------------------------------|

Part IV:                               T           T
E|-T----------------------------------19p15p10h15-22p19p15h19p15----------------------------------|
B|20p15p12h15(bar pinkie at 15th fret)---------------------------15-------15----------------------|
G|------------------------------------------------------------------16-------16--------9----------|
D|---------------------------------------------------------------------17-------17s12----12-11-12-|
A|------------------------------------------------------------------------------------------------|
E|------------------------------------------------------------------------------------------------|

E|------|
B|------|
G|14b16-
D|------|
A|------|
E|------|

Part V:
E|---------------------------------------------------------------------12-------------------------|
B|---------------12-13p12----------------12-13p12-------------------12----15p12-------------------|
G|16p12----12-15----------15p12----12-15----------15p12----12-14h15-------------15-14-12----13b14~|
D|------14----------------------14----------------------14-------------------------------14-------|
A|------------------------------------------------------------------------------------------------|
E|------------------------------------------------------------------------------------------------|

Part VI:
E|12-------------12-------------|
B|---15p12-15b17----15p12-------|
G|------------------------14b16-|
D|------------------------------| x2
A|------------------------------|
E|------------------------------|

E|----------------------     E|---------17\-|
B|(fast)-17p15p12-15b17-     B|17p15p12-17\-|
G|----------------------     G|-------------|
D|---------------------- x3  D|-------------|
A|----------------------     A|-------------|
E|----------------------     E|-------------|
Suggest correction
What's this?
You can suggest a correction to this tab. Community and Mods will review your correction and vote to approve or reject it.
comments
We did not receive enough feedback on this tab! Please rate:
print report bad tab
1 2 3 4 5
guest
You may want to rate the tab now too:
select rating
Please do not post tabs as comments. Select "correction" instead!