Oops, an error
Loading. Please wait.

Symphony Of Destruction Tab

version 4
1,719 views 1 this week
no commentswrite comment
1 2 3 4 5
not so good
x 2
add to favorites
launch autoscroll
font size
0
reset
how to read this tab
guitar tuner
Tab Pro tools
  • play this tab
  • loop segment
  • change instrument
  • show fretboard
  • metronome
Autoscroll
slow
fast
+/-
esc
set tempo
stop
Contributor
I just wanted to have a page with just the solo (not the rhythm). I got this from 
tab version # 1 so all credit for this work goes to Space #6!!!

  A       Ab         G             A        Ab    G           A

 (Marty)
e---------0--0--0--0-----------------|--------------------------|
B----3/5--5--5--5--5~~~~~~-----(5)\3-|-3\5-----5~~---5\3-----3b-|
G------------------------------------|--------------------4-----|
D------------------------------------|--------------------------|
A------------------------------------|--------------------------|
E------------------------------------|--------------------------|

      Ab          G            A         Ab    G           A

                                                      Pm-----

e----------------------------------|--------------------------|
B-------------------------5\-------|--------------------------|
G----------------------7b-------3b-|--------------------------|
D----------------------------------|------------------5--7--5-|
A----------------------------------|--------------------------|
E----------------------------------|--------------------------|

     Ab          G            A         Ab    G              A

e----------------------------------|------------------------------|
B----------------------------------|------------------------------|
G----------------------------------|------------------------------|
D-7brb(Gradual Bend)------------7b-|------5-----5--------------9\-|
A----------------------------------|---------7-----7--7~~~--------|
E----------------------------------|------------------------------|
                               

      Ab           G                    A


e------------------------12-------12/14----12-|
B------------------10-13----10-13-------13----|
G-----9-11----9-11----------------------------|
D-/10------10---------------------------------|
A---------------------------------------------|
E---------------------------------------------|
                       
         Ab             G                  A
        

e-14-17p14p12----14/20-17h20p17--------------|
B-------------13----------------19-17--------|
G-------------------------------------17~~~\-|
D--------------------------------------------|
A--------------------------------------------|
E--------------------------------------------|

    




          Ab          G                       A

e--------------------------------------------------|
B-/12p10----10-12p10----10-15p10----15p10----14p10-|
G--------12----------12----------12-------12-------|
D--------------------------------------------------|
A--------------------------------------------------|
E--------------------------------------------------|
                                                   |

Ab          G                          A

e-----------------------------------------------------|
B-17p15-----15-17p15----20p15--------20p15------19p15-|
G--------16----------16----------16--------16---------|
D-----------------------------------------------------|
A-----------------------------------------------------|
E-----------------------------------------------------|

        Ab             G                             A

e----------------19p15----15-19h22p19----19-------------|
B-20p15----15----------15-------------20----20----------|
G-------16----16-------------------------------19-------|
D-------------------------------------------------21----|
A----------------------------------------------------22-|
E-------------------------------------------------------|


        Ab          G                       A

e-------------------------------------------------|
B-15----------------------------------------------|
G----16-------------------14b~~~~~~~~~\-----------|
D-------17----14----------------------------------|
A----------17----17-16h17-------------------------|
E-------------------------------------------------|

         Ab           G                      A

e--------------------------------------------------|
B-----------------12-13p12----------------12-13----|
G-/16p12----12-15----------15-12----12-15----------|
D--------14----------------------14----------------|
A--------------------------------------------------|
E--------------------------------------------------|
                             
    Ab           G                         A

e----------------------------12-------------------|
B-13p12-------------------12----15p12-------------|
G-------15-12----12-14-15-------------15-14p12----|
D-------------14-------------------------------14-|
A-------------------------------------------------|
E-------------------------------------------------|
                                            
     Ab          G                       A

e-----------------12--------12-----------12-----------|
B--------------12----15p12-----15p12--------15p12-----|
G-13b~~~~----------------------------14b----------14b-|
D-----------------------------------------------------|
A-----------------------------------------------------|
E-----------------------------------------------------|
                                                      |

      Ab            G                     F E

e-12------------12-------12-17b--------|-(17)\------------|
B-----15p12--------15p12----17b--------|-(17)\------------|
G-----------14b------------------------|------------------|
D--------------------------------------|------------------|
A--------------------------------------|------------------|
E--------------------------------------|------------------|


Symbols used in this tab:

~= Vibrato
h= Hammer
p= Pull-Off
b= Bend
brb= Bend and Realease and Bend
\= Slide Down
/= Slide Up
()= Ghost note
Pm= Palm Mute

comments
We did not receive enough feedback on this tab! Please rate:
print report bad tab
1 2 3 4 5
I want to post or [tab]
guest
You may want to rate the tab now too:
select rating
Please do not post tabs as comments. Select "correction" instead!