Oops, an error
Loading. Please wait.

Symphony Of Destruction Tab

version 5
9,081 views 9 this week
1 commentread comment
1 2 3 4 5
accurate
x 7
add to favorites
launch autoscroll
font size
0
reset
how to read this tab
guitar tuner
Tab Pro tools
  • play this tab
  • loop segment
  • change instrument
  • show fretboard
  • metronome
×
Best way to learn
"Symphony Of Destruction"
Autoscroll
slow
fast
+/-
esc
set tempo
stop
Contributor
Difficulty
advanced
-------------------------------------------------------------------------------
                             Symphony of Destruction - Megadeth
-------------------------------------------------------------------------------
Tabbed by: Greg Morris
Email:gmstockportfolio@sbcglobal.net

Tuning: standard


| /   slide up
| \   slide down
| h   hammer-on
| p   pull-off
| ~   vibrato
| +   harmonic
| x   Mute note
| b   Bend
| pb  Pre-bend
| br  Bend release
| pbr Pre-bend release
| brb Bend release bend

****IMPORTANT****: do not pick notes in parentheses (). These are here to
tell you how high to bend after a bend b or how high to slide after a /.

The X line is the fingering. It tells you what fingers I use to play each
note. They do it for piano music and classical guitar music, so I figure why
not for tabs. 1 is index, 2 is middle, 3 is ring, 4 is little fingers. Bends
include the finger listed but also the ones behind the bend not listed but
used for support. Example: a bend with finger 2 listed includes finger 1 for
support as well.

e|---------------------------------------------------------------------------|
B|------------------------5--------------------------------------------------|
G|-7/9~-7/9~-9/7---6b-(7)-7b-(9)-3~-0-2-0-2b(4)r(2)b(4)p0--0------9-11---9-11|
D|---------------9---------------------------------------2---2/-10-----10----|
A|---------------------------------------------------------------------------|
E|---------------------------------------------------------------------------|
X  2    2    2   4 2      1      2  N 2 N 2             N2 N 2  2 1 3  2 1 3
                          3

e|---8-12----8-12/(14)p12----12/(14)-14h17p14----14-17/20-17h20p17-----------|
B|-10-----10--------------13------------------17-------------------19-17-----|
G|----------------------------------------------------------------------17---|
D|---------------------------------------------------------------------------|
A|---------------------------------------------------------------------------|
E|---------------------------------------------------------------------------|
X  2 1 3  2  1 3 (3) 1    2  1 (1)   1 3 1    3  1  3/3  1 3 1     3  (1 1bar)

e|---------------------------------------------------------------------------|
B|--12p10----10h12p10----10-15p10----15p10----14p10--------------------------|
G|--------12----------12-----------12------12--------------------------------|
D|---------------------------------------------------------------------------|
A|---------------------------------------------------------------------------|
E|---------------------------------------------------------------------------|
X   2  1  2  1  2  1  2  1  4  1   2 4 1   2  4  1

e|---12p10----10h12p10----10-15p10----15p10----14p10-15p10----10--19p15--15--|
B|---------12----------12-----------12------12-------------12----------15----|
G|---------------------------------------------------------------------------|
D|---------------------------------------------------------------------------|
A|---------------------------------------------------------------------------|
E|---------------------------------------------------------------------------|
X    2  1  2  1  2  1  2  1  4  1   2  4 1  2  4 1   4  1  2  1  4 (1 1 1 bar)
e|-22p19----19---------------------------------------------------------------|
B|-------20-----20p15-------15-<=downstroke-this-----------------------------|
G|---------------^----16-------16--------------------14b(16)-----------------|
D|---------------^-------17----^--17-----14----------------------------------|
A|---------------start sweep---^-----17-----17-16-17-------------------------|
E|---------------------------start sweep pick--------------------------------|
X  4  1  2  1   4  1  2  3  1  2  (3 3bar)1 3  2  3  2

e|-----------------------------------------------12--------------------------|
B|-----------------12-13p12----------------12h13----13p12--------------------|
G|--15p12----12h15----------15p12----12h15----------------15p12----12h14b(16)|
D|--------14----------------------14----------------------------14-----------|
A|---------------------------------------------------------------------------|
E|---------------------------------------------------------------------------|
X   4  1  3  1  4  1  2  1  4  1  3  1  4  1  2  1  2  1  4  1  3  1  3

e|----12------------------------------------12---------------12--------------|
B|-12-----15p12--------------------------------15p12-15b(17)----15p12--------|
G|---------------14b(16)r(14)p12----12b(14)----------------------------------|
D|-------------------------------14------------------------------------------|
A|---------------------------------------------------------------------------|
E|---------------------------------------------------------------------------|
X (1 1bar)4 1    3            1  3  2       1  3  1  3       1  3  1

e|---------12---------------12-----------------------------------------------|
B|------------15p12-------------15p12------------12h15p12----------12-15-----|
G|-14b(16)----------14b(16)------------ 14b(16)----------- 14b(16)----14b(16)|
D|---------------------------------------------------------------------------|
A|---------------------------------------------------------------------------|
E|---------------------------------------------------------------------------|
X  3       1  4  1  3       1   4  1    3        1  4  1   3       1  4       
                                                                      3
comments
print report bad tab
1 comment total.
0 reply
EnemyofGod wrote on July 14 2012, 07:05 am

Seems to be the same way Marty plays the solo compared to vids on youtube! Too bad there is no timing indication, owell

I want to post or [tab]
guest
You may want to rate the tab now too:
select rating
Please do not post tabs as comments. Select "correction" instead!