Oops, an error
Loading. Please wait.

Symphony Of Destruction Bass Tab

version 2
82,766 views 105 this week
no commentswrite comment
1 2 3 4 5
x 6
add to favorites
launch autoscroll
font size
0
reset
guitar tuner
Autoscroll
slow
fast
+/-
esc
set tempo
stop
Help us to improve Ultimate-Guitar.com Take our survey!
×
standard tuning
when notes are next to each other they are tied

i=eighth rest
%=half rest

[Intro]

G|-----------|-----------------|--------------------------------------------|
D|%-i--------|-----------------|--------------------------------------------|
A|----------|-----------------|---------------------------------------------|
E|----1-3-1-|-1-0-0-0-0-0-0-0-|-1-0-0-0-0-1-3-1-----------------------------|


[Verse]

G|-----------------|-----------------|-----------------|-------------------|
D|-----------------|-----------------|-----------------|-------------------|x3
A|-----------------|-----------------|-----------------|-------------------|
E|-1-0-0-0-0-0-0-0-|-0-0-0-0-0-0-0-0-|-1-0-0-0-0-0-0-0-|-1-0-0-0-0-1-3-1---|


[Pre-Chorus]

G|-----------------|-----------------|-----------------|--------------------|
D|-----------------|-----------------|-----------------|--------------------|
A|-----------------|-----------------|-----------------|--------------------|
E|-1-0-0-0-0-0-0-0-|-0-0-0-0-0-0-0-0-|-0-0-0-0-0-0-0-0-|-0-0-0-0-0-0-0-3----|
                                                                 tie to next measure

G|-----------------|----------------|--------------|------------------------|
D|-----------------|----------------|--------------|------------------------|
A|-----------------|---------------3|3-3-3-3-3-3-3-|-3-3-3-3-3-3-3-0--------|
E|-3-3-3-3-3-3-3-3-|-3-3-3-3-3-3-3--|--------------|------------------------|


[Chorus]

G|----------------|---------------|----------------|-----------------|-----------------|
D|---------------0||0-------------|----------------|-------------2---|-----------------|
A|-0-0-0-0-0-0-0--|--2-1-0--------|----------------|---------------2-|-3-3-3-3-3-3-3-3-|
E|----------------|--------3-2-1-0|0-0-0-0-0-2-2-2-|-3-3-3--4--0-----|-----------------|

G|-------0---------|-----------------|----------------|---------------------------------|
D|-0-0-0---4-0-----|-----------------|------------2---|---------------------------------|
A|--------------2--|-----------------|--------------2-|-3-3-3-3-3-3-3-3-----------------|
E|-----------------|-0-0-0-0-0-2-2-2-|-3-3-3--4--0----|---------------------------------|

                                                    then go back to the begining for the
verses but after the 2nd verse just before the

[gutair solo]

G|-----------------|-----------------|------------------------------------------------|
D|-0-0-0-0----0----|-----------------|------------------------------------------------|
A|-----------------|-----------------|------------------------------------------------|
E|-----------------|-1-0-0-0-0-0-0-0-|-1-0-0-0-0-1-3-1--------------------------------|

G|------------------|---------------|--------------|--------------|-------0---------------|
D|--0-0-0-0----0----|---------------|----------2---|--------------|--0--i---4-0-----------|
A|------------------|---------------|------------2-|-3.-3-3--3--3-|--------------2--------|
E|------------------|-0.--0-0--2--2-|-3.--4--0-----|--------------|-----------------------|

G|-------------|-0--1-----9---|-5.--5--5--5-|-7.-0-------|-----------------|---------------|
D|-2.--2--4--4-|-------2----4-|-------------|------4-0---|-----------------|---------------|
A|-------------|--------------|-------------|----------2-|-3-3-3-3-3-3-3-3-|---------------|
E|-------------|--------------|-------------|------------|-----------------|---------------|

                 this is where the guitar solo starts

G|----------------|----------------|----------------|----------------|------------------|
D|-0-0-0-0-0------|----------------|----------------|----------------|------------------|
A|----------------|----------------|----------------|----------------|---------------3--|
E|-----------0-0-0|0-0-0-0-0-0-0-0-|-0-0-0-0-0-0-0-3|3-3-3-3-3-3-3-3-|-3-3-3-3-3-3-3----|

                                                                                   tie

G|----------------|---------------|----------------|-----------------|-------------0-2----|
D|----------------|---------------|----------------|-----------------|---------0-2--------|
A|-3-3-3-3-3-3-3-3|3-3-3-3-3-3-3-0|0-0-0-0-0-0-0-0-|-0-0-0-0-0-0-0---|-0-0-0-0------------|
E|----------------|---------------|----------------|---------------0-|--------------------|

                                                    then go back to play another verse

G|---0-------------|-----------------|-----------------------|
D|-----2-1-0-------|-----------------|-----------------------|
A|-0---------3-0---|-----------------|-----------------------|
E|---------------1-|-1-0-0-0-0-0-0-0-|-1-0-0-0-0-0-0-0-------|


[Outro]

G|-----------------|-----------------|----------------------------|
D|-----------------|-0-0-0-0----0----|-----i----------------------|
A|-3-3-3-3-3-3-3-3-|-----------------|----------------------------|
E|-----------------|-----------------|-1-0---0--------------------|

[order]

[Intro]
[Verse]
[Pre-Chorus]
[Chorus]
[Verse]
[Pre-Chorus]
[Chorus]
[Solo]
[Verse]
[Pre-Chorus]
[Chorus]
[Outro]
Suggest correction
comments
print report bad tab
guest
You may want to rate the tab now too:
select rating
Wanna post a correction for this tab? Suggest correction