Oops, an error
Loading. Please wait.

Symphony Of Destruction Tab

version 2
version 2
25,095 views 1 this week
9 commentsread comments
1 2 3 4 5
not so good
x 18
add to favorites
launch autoscroll
font size
0
reset
how to read this tab
guitar tuner
Tab Pro tools
  • play this tab
  • loop segment
  • change instrument
  • show fretboard
  • metronome
×
Best way to learn
"Symphony Of Destruction"
Autoscroll
slow
fast
+/-
esc
set tempo
stop
Megadeth  -     Symphony of Destruction
(figured out by Jacob Ottosson)

E-------------------------------------------------
B-------------------------------------------------
G-------------------------------------------------
D-----------2-2------2-2------------2-2-----------
A--------2--2-2---2--2-2--------2---2-2-----------
E-1-3-1-1---0-0--1---0-0-1-3-1-1---0-0------------
you take a mortal man.....



E-------------------------------------------------
B-------------------------------------------------
G--------3-5-3------------------------------------
D-7-6-5-------5-----------------------------------
A-5-4-3-------------------------------------------
E-------------------------------------------------
..........watch peoples heads a'roll........


E-------------------------------------------------
B-------------------------------------------------
G-------------------------------------------------
D--9--8--7---5--------7---6---5--5-7-5------------
A--7--7--7----7------5---5---5--------7-5---------
E-0--0--0------7----0---0---0---------------------
....just like the pied piper................


//Added by Jacob Ottosson year 2000


/Jacob          -Up the Irons! 


------------------------------------------------------------
The Official Iron Maiden Website: http://www.ironmaiden.com
More Metal at: http://www.metal-is.com




comments
print report bad tab
9 comments total. Showing first comments. show 1 bad comment
+4 reply
jimmy_hill1001 wrote on November 14 2002, 12:00 am

i think this tab sucks trust me its wrong

+1 reply
Space #6 wrote on February 10 2003, 12:00 am

This tab sucks ass.

I want to post or [tab]
guest
You may want to rate the tab now too:
select rating
Please do not post tabs as comments. Select "correction" instead!