Oops, an error
Loading. Please wait.

Take No Prisoners Tab

version 1
version 1
30,209 views 33 this week
3 commentsread comments
1 2 3 4 5
accurate
x 6
add to favorites
launch autoscroll
font size
0
reset
how to read this tab
guitar tuner
Tab Pro tools
  • play this tab
  • loop segment
  • change instrument
  • show fretboard
  • metronome
×
Best way to learn
"Take No Prisoners"
Autoscroll
slow
fast
+/-
esc
set tempo
stop
#----------------------------------PLEASE NOTE---------------------------------#
#This file is the author's own work and represents their interpretation of the #
#song. You may only use this file for private study, scholarship, or research. #
#------------------------------------------------------------------------------##
Date: Tue, 12 Dec 1995 08:29:08 +0100
From: Frank Taylor 
Subject: TAB - Take No Prisoners by Megadeth

Take No Prisoners by Megadeth
TAB`d out by Frank A. Taylor - mork@oceana.sdsc.edu

I`ve seen a few requests for this so I thought I would TAB it for you lucky,
lucky people :) If ya see any mistakes or stuff then please let me know so I
can fix it! Or please drop me a line to say if the TAB was helpful - makes me
feel that my time typing it out was worthwhile! I have a lot of TAB that I can
type out that I`ll do if you ask nicely :-) Remember to contribute some TAB if
you can - enjoy!


     F#5              N.C.                F#5              N.C.
                        P.M.--------|                         P.M.-------|
E||------------------------------------|------------------------------------|
B||------------------------------------|------------------------------------|
G||------------------------------------|------------------------------------|
D||------------------------------------|------------------------------------|
A||--4---4---4---4---------------------|--4---4---4---4---------------------|
E||--2---2---2---2------0--3--0--2--0--|--2---2---2---2------0--3--0--2--0--|

    F#5               N.C.
                       P.M.--------|
E|------------------------------------|--------------------------------
B|------------------------------------|--------------------------------
G|------------------------------------|--------------------------------
D|------------------------------------|--------------------------------
A|--4---4---4---4---------------------|--------------------------------
E|--2---2---2---2------5--4--0--2--0--|--2--0--2--3------2--0--2--5----

                  F#5              N.C.                F#5
                                     P.M.--------|
E--------------|------------------------------------|-------------------
B--------------|------------------------------------|-------------------
G--------------|------------------------------------|-------------------
D--------------|------------------------------------|-------------------
A--------------|--4---4---4---4---------------------|--4---4---4---4----
E--3--2--0--2--|--2---2---2---2------0--3--0--2--0--|--2---2---2---2----

 N.C.                F#5              N.C.
   P.M.--------|                        P.M.--------|
E-----------------|------------------------------------|----------------
B-----------------|------------------------------------|----------------
G-----------------|------------------------------------|----------------
D-----------------|------------------------------------|----------------
A-----------------|--4---4---4---4---------------------|----------------
E--0--3--0--2--0--|--2---2---2---2------0--3--0--2--0--|--2--0--2--3----



E------------------------------|
B------------------------------|
G------------------------------|
D------------------------------|
A------------------------------|
E--2--0--2--5------3--2--0--2--|

Play 3 times
    F#5              N.C.
                       P.M.---------|
E|-------------------------------------|--------------------------------
B|-------------------------------------|--------------------------------
G|o------------------------------------|--------------------------------
D|o------------------------------------|--------------------------------
A|---4---4---4---4---------------------|--------------------------------
E|---2---2---2---2------0--3--0--2--0--|--2--0--2--3------2--0--2--5----



E---------------|------------------------------------------------|
B---------------|------------------------------------------------|
G--------------o|o----------------------------------------------o|
D--------------o|o----------------------------------------------o|
A---------------|------------------------------------------------|
E--3--2--0--2---|---2--0--2--3------2--0--2--5------3--2--0--2---|

Play 8 Times
    P.M.(slight)----------------------------------------|
E|----------------------------------------------------------|
B|----------------------------------------------------------|
G|o--------------------------------------------------------o|
D|o--------------------------------------------------------o|
A|----------------------------------------------------------|
E|---2--1--0--3----2--0--2--1----0--3--2--0----3--2--1--0---|

Play 8 Times
     F#5         G5             F#5      D5   F#5     C5
     P.M.-------------------|                 P.M.-|
E|--------------------------------------------------------|
B|--------------------------------------------------------|
G|o------------------------------------------------------o|
D|o--------------------------------------0------------5--o|
A|---4---4---4---5------5---5---4--------0----4---4---3---|
E|---2---2---2---3------3---3---2-------------2---2---3---|

You can use the basic two note power chords you just played to do the rhythm
for this part. This is what I play :)

    Got    one    chance
E|--------------------------------------------
B|--------------------------------------------
G|--------------------------------------------
D|-------------------------0-------------5----
A|--4------5------4--------0------4------3----
E|--2------3------2---------------2-----------

And so on...

F#5   G5    F#5     D5  F#5  C5
Got   one   chance.

 F#5    G5      F#5     D5     F#5  C5
(In  -  fil  -  trate    them!)

F#5   G5    F#5     D5  F#5  C5
Get   it    right.

 F#5     G5     F#5      D5   F#5  C5
(Ter  -  mi  -  nate    them!)          The

F#5     G5      F#5     D5  F#5  C5
Pan  -  zers    will...

 F#5     G5     F#5     D5   F#5  C5
(Per  -  me  -  ate    them!)

F#5     G5      F#5    D5  F#5  C5
Break   their   pride.

 F#5     G5    F#5       D5   F#5  C5
(Den  -  i  -  grate    them!)

The chords then slightly change for four bars, you can use the same idea 
with the chords as before. Here are the extra chords used for this bit.

   G#5    B
|---------------|
|---------------|
|---------------|
|---------4-----|
|--6------2-----|
|--4------------|

A bit tricky to reach the G#5 from the B,so what I do is....

E|--------------------------------
B|--------------------------------
G|--------------------------------
D|-------------------4-------0----
A|--6--X--X--4--6----2-------0----
E|--4--X--X--2--4--------4--------

The exact rhythm for the G#5 and F#5 change is hard to hear but you can do
what you think sounds right :)

G#5    F#5      G#5     B5   G#5  D5
And    their    peo  -  ple.

 G#5     F#5   G#5      B5   G#5  D5
(Ret  -  ro  -  grade   them!)

G#5   F#5   G#5    B5  G#5  D5
Ty    -     phus,          (De  -  

G#5     F#5   G#5     B5    G#5  D5
ter  -  io  -  ate    them!)


Then back to the other chords.

F#5    G5    F#5     D5  F#5  C5
Ep  -  i  -  dem  -  ic.

 F#5     G5    F#5      D5     F#5  C5
(Dev  -  as  -  tate    them!) Take  no

F#5      G5     F#5    D5  F#5  C5
pris  -  on  -  ers.

 F#5    G5   F#5      D5   F#5  C5
(Cre    -    mate    them!)

     N.C.
E|---------------------------------------------------------|--------------
B|---------------------------------------------------------|--------------
G|o--------------------------------------------------------|--------------
D|o--------------------------------------------------------|--------------
A|---------------------------------------------------------|--------------
E|---14---12--13-----11--12----10--11-----9---10--8--9--7--|--9---6--7----

                                     1.|------------------------------
                                       F#5
E-----------------------------------|---------------------------------
B-----------------------------------|---------------------------------
G-----------------------------------|---------------------------------
D-----------------------------------|---------------------------------
A-----------------------------------|--4----X--4-----X--4-----X--4----
E--5--6----4--5-----3---4--2--3--1--|--2----X--2-----X--2-----X--2----

   --------------------------------------------------|
   N.C.              F#5  E5   B5      F#5  E5   B5
   P.M.--------|  (Burn!)
E-----------------|----------------------------------|
B-----------------|----------------------------------|
G-----------------|-------2----4------------2----4--o|
D-----------------|--4----2----4-------4----2----4--o|
A-----------------|--4-----------------4-------------|
E--0--3--0--2--0--|----------------------------------|

  2.|----------------------------------------------|
    F#5                           N.C.                E5   D5   E5
                                    P.M.--------|
E|-------------------------------------------------|-----------------
B|-------------------------------------------------|-----------------
G|-------------------------------------------------|-----------------
D|-------------------------------------------------|--2----0----2----
A|--4----X--4-----X--4-----X--4--------------------|--2----0----2----
E|--2----X--2-----X--2-----X--2-----0--2--0--0--0--|-----------------

     F5   E5   D5    F#5                            N.C.
                                                      P.M.--------|
E-----------------|--------------------------------------------------|
B-----------------|--------------------------------------------------|
G-----------------|--------------------------------------------------|
D--2/3----2----0--|--------------------------------------------------|
A--2/3----2----0--|--4-----X--4-----X--4-----X--4--------------------|
E-----------------|--2-----X--2-----X--2-----X--2-----0--3--0--2--0--|

    F#5  E5   B5      F#5  E5   B5    F#5

E|---------------------------------|----------------------------------
B|---------------------------------|----------------------------------
G|-------2----4------------2----4--|----------------------------------
D|--4----2----4-------4----2----4--|----------------------------------
A|--4-----------------4------------|--4-----X--4-----X--4-----X--4----
E|---------------------------------|--2-----X--2-----X--2-----X--2----

 N.C.                E5   D5   E5       F5   E5   D5
   P.M.--------|
E-----------------|----------------------------------|
B-----------------|----------------------------------|
G-----------------|----------------------------------|
D-----------------|--2----0----2------2/3----2----0--|
A-----------------|--2----0----2------2/3----2----0--|
E--0--2--0--0--0--|----------------------------------|


     N.C.
E|--------------------------------------------------------|--------------
B|--------------------------------------------------------|--------------
G|--------------------------------------------------------|--------------
D|--------------------------------------------------------|--------------
A|--------------------------------------------------------|--------------
E|--14---12--13-----11--12----10--11-----9---10--8--9--7--|--9---6--7----


                                       F#5                          N.C.
                                                                      P.M.
E-----------------------------------|----------------------------------------|
B-----------------------------------|----------------------------------------|
G-----------------------------------|------------------------------------4/--|
D-----------------------------------|------------------------------------4/--|
A-----------------------------------|--4----X--4-----X--4-----X--4-----------|
E--5--6----4--5-----3---4--2--3--1--|--2----X--2-----X--2-----X--2----0------|


    F#5    N.C.     F#5                                 G5    F#5
                    Go to war,            give `em hell.
                                                    P.M.------------|
E|---------------|-----------------------------------------------------|
B|---------------|-----------------------------------------------------|
G|--11-----------|-----------------------------------------------------|
D|--11-----------|-----------------------------------------------------|
A|--9------------|--4----X--4-----X--4-----X--4---------5-------4------|
E|---------------|--2----X--2-----X--2-----X--2-----0---3---0---2---0--|


E|---------------------------------------------------------|
B|---------------------------------------------------------|
G|---------------------------------------------------------|
D|---------------------------------------------------------|
A|--------2--3-----2-------------------2--3----2-----------|
E|--2--5--------------5--2--0----2--5-------------5--2--0--|


    F#5                                 G5      F#5
    D - day,    next stop Normandie.
                                    P.M.------------|
E|-----------------------------------------------------|----------------
B|-----------------------------------------------------|----------------
G|-----------------------------------------------------|----------------
D|-----------------------------------------------------|----------------
A|--4----X--4-----X--4-----X--4---------5-------4------|--------0--1----
E|--2----X--2-----X--2-----X--2-----0---3---0---2---0--|--0--3----------


                                       Be-   gin  -  ning     of      the end

E-----------------------------------------|---------------------------------
B-----------------------------------------|---------------------------------
G-----------------------------------------|---------------------------------
D-----------------------------------------|---------------------------------
A--0--------------------0--1-----0--------|--4----X--4-----X--4-----X--4----
E-----3--0--0-----0--3--------------3--0--|--2----X--2-----X--2-----X--2----


       G5      F#5
   P.M.------------|
E---------------------|----------------------------------------------
B---------------------|----------------------------------------------
G---------------------|----------------------------------------------
D---------------------|----------------------------------------------
A------5-------4------|--------2--3-----2--------------------2--3----
E--0---3---0---2---0--|--2--5--------------5--2--0-----2--5----------


                  F#5                                 G5      F#5
   We know        how     to,    and,  sure   as  shit,        we`ll
                                                  P.M.------------|
E--------------|-----------------------------------------------------|
B--------------|-----------------------------------------------------|
G--------------|-----------------------------------------------------|
D--------------|-----------------------------------------------------|
A--2-----------|--4----X--4-----X--4-----X--2---------5-------4------|
E-----5--2--0--|--2----X--2-----X--2-----X--4-----0---3---0---2---0--|


               win.

E|--------------------------------------------------------|
B|--------------------------------------------------------|
G|--------------------------------------------------------|
D|--------------------------------------------------------|
A|--------0--1-----0--------------------0--1-----0--------|
E|--0--3--------------3--0--0-----0--3--------------3--0--|

    F#5                                 G5      F#5
    "War is peace."       Sure,     man.
                                    P.M.------------|
E|-----------------------------------------------------|---------------
B|-----------------------------------------------------|---------------
G|-----------------------------------------------------|---------------
D|-----------------------------------------------------|---------------
A|--4----X--4-----X--4-----X--4---------5-------4------|--------2--3---
E|--2----X--2-----X--2-----X--2-----0---3---0---2---0--|--2--5---------

                                                F#5
                                       A        re   -   treat         for 

E--------------------------------------------|-------------------------------|
B--------------------------------------------|-------------------------------|
G--------------------------------------------|-------------------------------|
D--------------------------------------------|-------------------------------|
A--2--------------------2--3-----2-----------|--4----X--4-----X--4-----X--4--|
E-----5--2--0-----2--5--------------5--2--0--|--2----X--2-----X--2-----X--2--|


       G5      F#5
 the  damned.
   P.M.------------|
E---------------------|----------------------------------------------
B---------------------|----------------------------------------------
G---------------------|----------------------------------------------
D---------------------|----------------------------------------------
A------5-------4------|--------0--1-----0--------------------0--1----
E--0---3---0---2---0--|--0--3--------------3--0--0-----0--3----------


    N.C.
   A           play  -  ground    for           the            de   -

E-----------|--------------------------------------------------------|
B-----------|--------------------------------------------------------|
G-----------|--------------------------------------------------------|
D-----------|--------------------------------------------------------|
A--0--------|--------------------------------------------------------|
E-----3--0--|--14---12--13-----11--12----10--11-----9---10--8--9--7--|


                                                   F#5                         
   ment  -  ed,  and a ha   -   ven       for     those     who     walk

E------------------------------------------------|------------------------
B------------------------------------------------|------------------------
G------------------------------------------------|------------------------
D------------------------------------------------|------------------------
A------------------------------------------------|--4----X--4-----X--4----
E--9---6--7-----5--6----4--5-----3---4--2--3--1--|--2----X--2-----X--2----


          N.C.                    F#5   N.C.
       this  world     be   -   reft of heart and soul.
            P.M.------------|
E------------------------------|-----------------------|-------------------
B------------------------------|-----------------------|-------------------
G------------------------------|-----------------------|-------------------
D------------------------------|--4--------------------|--4---3---2--------
A--X--4------------------------|--4--------------------|--------------4----
E--X--2-----0---3---0---2---0--|--2--------------------|-------------------


                                                                          F5

                                                                            L-
E-----------------------------|----------------------------------------------|
B-----------------------------|----------------------------------------------|
G-----------------------------|----------------------------------------------|
D--4-----4---3---2------------|----------------------------------------------|
A--------------------4-----2--|--4---3---2---0-----------1---0------------3--|
E-----------------------------|--------------------3-------------3---2----1--|


    G5      F#5      G5       F#5        G5  A5
  (L)ove and war they say all    is      fair.

E|----------------------------------------------|
B|----------------------------------------------|
G|----------------------------------------------|
D|----------------------------------------------|
A|--5----X--4-----X--5-----X--4----X-----5---7--|
E|--3----X--2-----X--3-----X--2----X-----3---5--|


    F#5


E|-----------------------------------------------------|
B|-----------------------------------------------------|
G|-----------------------------------------------------|
D|--4p2---------------------------------------2--3--4--|
A|--4-----4-p-3-p-2-p-0-h-2--2----2--3--4--4-----------|
E|--2--------------------------------------------------|



    G5      F#5      G5       F#5       G5      F#5
    Take his life but won`t take his hair.
                                    P.M.------------|
E|-----------------------------------------------------|---------------
B|-----------------------------------------------------|---------------
G|-----------------------------------------------------|---------------
D|-----------------------------------------------------|--4p2-----2----
A|--5----X--4-----X--5-----X--4---------5-------4------|--2----4-------
E|--3----X--2-----X--3-----X--2-----0---3---0---2---0--|--0------------


                                                     G5      F#5      G5
                                              Your bod - y  parts    your

E-------------------------------------------------|------------------------
B-------------------------------------------------|------------------------
G-------------------------------------------------|------------------------
D-------------------------------------------------|------------------------
A--4---0---4---4p3-----3---3---0---2-----2p0------|--5----X--4-----X--5----
E----------------------------------------------0--|--3----X--2-----X--3----

      F#5       G5      F#5

 coun - try spares.
            P.M.------------|
E------------------------------|--------------------------------
B------------------------------|--------------------------------
G------------------------------|--------------------------------
D------------------------------|--4p2---------------------------
A--X--4---------5-------4------|--4----4-p-3-p-2-p-0-h-2---2----
E--X--2-----0---3---0---2---0--|--2-----------------------------


                                   G5      F#5      G5       F#5
                     By    the     way      son,      here`s your

E-------------------------------|---------------------------------
B-------------------------------|---------------------------------
G-------------------------------|---------------------------------
D--------------------2---3---4--|---------------------------------
A--2---3---4---4----------------|--5----X--4-----X--5-----X--4----
E-------------------------------|--3----X--2-----X--3-----X--2----


       G5      F#5
      wheel              chair.
   P.M.------------|
E---------------------|--------------------------------------------------------
B---------------------|--------------------------------------------------------
G---------------------|--------------------------------------------------------
D---------------------|--4-p-2-------2-----------------------------------------
A------5-------4------|----------4---------4---0---4--4p3-----3---3---0--------
E--0---3---0---2---0--|---------------------------------------------------2----


                     F#5  G5     F#5     C#5   D5    A5     G#5   A5
               He    once  had to be...                     all   he could

E-----------------|--------------------------------------|---------------------
B-----------------|--------------------------------------|---------------------
G-----------------|--6-----7------6----------------------|---------------------
D-----------------|--4-----5------4-------6-----7--------|---------------------
A--2-p-0----------|-----------------------4-----5-----7--|--6-----7------------
E----------0---0--|-----------------------------------5--|--4-----5------------


   G#5     F#5   G#5   A5    G5    F#5    G5         F#5       G5      F#5
   be.         Now, he`s     no - thing to no        one.              No -
           P.M.--------|                         P.M.----------------------|
E-------------------------|---------------------------------------------------|
B-------------------------|---------------------------------------------------|
G-------------------------|---------------------------------------------------|
D-------------------------|---------------------------------------------------|
A--6-------4-----6-----7--|--5-----4------5----------4---------5-------4------|
E--4-------2-----4-----5--|--3-----2------3------0---2---0-----3---0---2---0--|


          where to be seen.

E|------------------------------------------------------------------|
B|------------------------------------------------------------------|
G|------------------------------------------------------------------|
D|--4-p-2------------------------------------------------2---3---4--|
A|---------4-p-3-p-2-p-0-h-2--2----2---2---3---4---4----------------|
E|------------------------------------------------------------------|


    F#5   G5     F#5     C#5   D5    A5    G#5   A5     G#5     F#5  G#5  A5
   Fun -  ny     thing,       he`s  like  you    and    me.         It`s  a
                                                                P.M.------|
E|--------------------------------------|------------------------------------|
B|--------------------------------------|------------------------------------|
G|--6-----7------6----------------------|------------------------------------|
D|--4-----5------4-------6-----7--------|------------------------------------|
A|-----------------------4-----5-----7--|--6-----7------6-------4----6----7--|
E|-----------------------------------5--|--4-----5------4-------2----4----5--|


    G5    F#5    G5          F#5     G5      F#5
                         P.M.--------------------|
    fun - ny    thing.                                 Fun    -    ny
E|--------------------------------------------------|--------------------
B|--------------------------------------------------|-------------------
G|--------------------------------------------------|-------------------
D|--------------------------------------------------|--4-p-2-------2----
A|--5-----4------5-----------4-------5-------4------|----------4--------
E|--3-----2------3-------0---2---0---3---0---2---0--|-------------------


                                                    G5    F#5    G5
  thing.                                            Tears        streak

E------------------------------------------------|--------------------
B------------------------------------------------|--------------------
G------------------------------------------------|--------------------
D------------------------------------------------|--------------------
A--4---0---4--4p3-----3---3---0-------2-p-0------|--5-----4------5----
E---------------------------------2-----------0--|--3-----2------3----


       F#5     G5      F#5
                      his       sol    -    emn          stare.
   P.M.--------------------|
E-----------------------------|----------------------------------
B-----------------------------|----------------------------------
G-----------------------------|----------------------------------
D-----------------------------|--4-p-2---------------------------
A------4-------5-------4------|----------4-p-3-p-2-p-0-h-2--2----
E--0---2---0---3---0---2---0--|----------------------------------


                                  G5    F#5    G5
                            A  -  ban   doned for wreck - age.
                                                       P.M.-------------
E------------------------------|--------------------------------------------
B------------------------------|--------------------------------------------
G------------------------------|--------------------------------------------
D-------------------2---3---4--|--------------------------------------------
A--2---3---4---4---------------|--5-----4------5-----------4-------5--------
E------------------------------|--3-----2------3-------0---2---0---3---0----


   F#5
             No    -    one      cares.
   ----|
E---------|--------------------------------------------------------------|
B---------|--------------------------------------------------------------|
G---------|--------------------------------------------------------------|
D---------|--4-p-2--------------------------------------------2---3---4--|
A--4------|----------4-p-3-p-2-p-0-h-2--2----2---3---4---4---------------|
E--2---0--|--------------------------------------------------------------|


    F#5   G5     F#5     C#5   D5    A5    G#5   A5     G#5     F#5  G#5  A5
    No -  one    knew         what  would  hap - en      there.
                                                                P.M.------|
E|--------------------------------------|------------------------------------|
B|--------------------------------------|------------------------------------|
G|--6-----7------6----------------------|------------------------------------|
D|--4-----5------4-------6-----7--------|------------------------------------|
A|-----------------------4-----5-----7--|--6-----7------6-------4----6----7--|
E|-----------------------------------5--|--4-----5------4-------2----4----5--|


    F#5   G5     F#5     C#5   D5    A5    F#5   G5     F#5     C#5  D5   A5
    No -  one    spoke.        No -  one   e  -  ven    cared.

E|--------------------------------------|------------------------------------|
B|--------------------------------------|------------------------------------|
G|--6-----7------6----------------------|--6-----7------6--------------------|
D|--4-----5------4-------6-----7--------|--4-----5------4-------6----7-------|
A|-----------------------4-----5-----7--|-----------------------4----5----7--|
E|-----------------------------------5--|---------------------------------5--|



We return to the chord backing done earlier, yay! :) I`ve tried to fit the
lyrics to the chords as close as possible.


F#5  G5      F#5  D5  F#5   C5
        Don`t ask            what 

F#5  G5   F#5  D5  F#5  C5
you  can  do       for  your  

F#5    G5  F#5   D5  F#5  C5
country.

F#5  G5  F#5  D5  F#5  C5
Uh,      ask      what  your

F#5    G5  F#5    D5  F#5  C5
coun - try can do for     you.

F#5  G5  F#5   D5  F#5  C5


SOLO

         Pick slide----------|
    F#5   G5  F#5    D5   F#5    C5
E|-------X-----------------------------|-----------------------------------|
B|-------X-----------------------8>----|-->10 > 8---5---8 > 10 > 8-p-5-----|
G|---------------------------X---------|--------------------------------7--|
D|---------------------------X---------|-----------------------------------|
A|-------------------------------------|-----------------------------------|
E|-------------------------------------|-----------------------------------|

   Take no prisoners.
E|-------------------|-----------------14--20 > 21----17-----------21-p-17--|
B|----------------0--|------------14----------------------19----------------|
G|--5~~~~~~~~~~------|--16 > 18-------------------------------18------------|
D|-------------------|------------------------------------------------------|
A|-------------------|------------------------------------------------------|
E|-------------------|------------------------------------------------------|

              Take no      shit!
E|-------------------------------------|--------------------------------------
B|--19---------------------------------|--------------------------------------
G|------18~~~~~~~~~~~~\------------14--|--13----------------------------------
D|----------------------------/16------|------14--16--14--16-p-14---14--16----
A|-------------------------------------|--------------------------------------
E|-------------------------------------|--------------------------------------

                                                  Take no prisoners.
E-----------------------------------------|--------------------------------|
B-----------------------------------------|--------------------------------|
G--14--16--14-h-16-p-14------14--16 > 17--|--(16) > 16 > 17 > 16 > 17~~~~--|
D-------------------------16--------------|--------------------------------|
A-----------------------------------------|--------------------------------|
E-----------------------------------------|--------------------------------|

E|---------------------------------------------------------------------------
B|--------------14--13-h-15---13-h-18-h-19-p-18-p-15----18-h-19-p-18-p-15----
G|--11--13--14---------------------------------------------------------------
D|---------------------------------------------------------------------------
A|---------------------------------------------------------------------------
E|---------------------------------------------------------------------------

                                Take no shit!
E-------------------------|-----------------------------|-------------
B--15---------------------|--------------------17 > 19--|--17 > 19----
G------19---19-p-17-p-14--|-----------------------------|-------------
D-------------------------|--16~~~~~~~~~~~~-------------|-------------
A-------------------------|-----------------------------|-------------
E-------------------------|-----------------------------|-------------

                                                         Take no prisoners.
E------------------------------------------17 > 18~~~--|--(17)~~~~~~~--X\--|
B--19-p-17-p-14---17 > 19----19-p-17-p-14--------------|---------------X\--|
G------------------------------------------------------|-------------------|
D------------------------------------------------------|-------------------|
A------------------------------------------------------|-------------------|
E------------------------------------------------------|-------------------|

E|--16-h-21-p-16-p-14-h-16-h-21---14--16-------------------------------------|
B|-----------------------------------------14-h-17-h-21-p-14-----------------|
G|------------------------------------------------------------21--14--14-21--|
D|---------------------------------------------------------------------------|
A|---------------------------------------------------------------------------|
E|---------------------------------------------------------------------------|

           Take no shit!
    Rake
E|-------------------------X--|--14 > 15 > 14----12-h-14-p-12------12--14----
B|---17 > 19~~~~~~~~~~~~---X--|--------------------------------14------------
G|--X----------------------X--|----------------------------------------------
D|----------------------------|----------------------------------------------
A|----------------------------|----------------------------------------------
E|----------------------------|----------------------------------------------

                              Take no prisoners.
E--11--14-p-11------11------|-------------------|----------------
B---------------14------14--|--13~~~~~~~~~~~~\--|--14--13--12----
G---------------------------|-------------------|----------------
D---------------------------|-------------------|----------------
A---------------------------|-------------------|----------------
E---------------------------|-------------------|----------------

                                                        Take no...
E-------------------------------------------|----------------------------|
B-------------------------------------------|----------------------------|
G--14--13--12--11------/14--12--14--11------|----------------------------|
D------------------14-------------------12--|--11~~~~~~~~~~\----10 > 11--|
A-------------------------------------------|----------------------------|
E-------------------------------------------|----------------------------|

                                                             Shit!
                        Tremelo pick------------------------|
E|--------------------------|---------------|-----------------------||
B|--------------------------|---------------|-----------------------||
G|--------------------------|---------------|-----------------------||
D|--(10) > 10----(10) > 11--|--(10)---------|--(10)----------(10)\--||
A|--------------------------|---------------|-----------------------||
E|--------------------------|---------------|-----------------------||


TAB help

h - Hammer on
p - Pull off
> - Bend. The number following the > is an indication of hoo far to bend the
    string. So, 17 > 19 would mean to bend the 17th fret until the note sounds
    like the note normally played on 19th fret...that is one whole tone. If I
    have 16 > 17 > 16 > 17 or something similar - you bend 16th fret one half
    tone and then back to 16th and then again to 17th etc....
~ - Vibrato. Shake the string gently!
X - Percussive tone with no pitch. You can dampen the strings with your left
    or right hand and when you pick a note or strum a chord...No notes are
    heard but you can hear the percussive sound...Hey! Just in case you didn`t
    know :)
/ - Slide up. Slide from one fret to another. If no fret is given before the /
    then slide up from an indefinite point to that fret. Equally if no fret is
    given after the / then slide off the fretboard.
\ - Slide down. Same as slide up but....wait for it! You slide..DOWN! :-)
P.M. - Palm Mute. Muting the strings with the palm of your pick hand.

Okay I`ve explained more than you need to know! If you don`t know what a pick
slide is or a rake then my guess is that you wouldn`t be able to play this song
anyways *whee*

`Life, death, sex. It`s pretty happening to me! What else is there?`
`Beer maybe?`
-Dave Mustaine





comments
print report bad tab
3 comments total.
0 reply
Man_In_The_Box wrote on February 13 2005, 12:00 am

everything is good except the timing is way off. so if u ignore that ur good.

0 reply
shadows666 wrote on July 18 2005, 12:00 am

nice tab. Keep up the good work.

0 reply
Mr.Mudflap wrote on April 26 2006, 10:54 pm

i 100% agree with man in a box

I want to post or [tab]
guest
You may want to rate the tab now too:
select rating
Please do not post tabs as comments. Select "correction" instead!