Oops, an error
Loading. Please wait.

Take No Prisoners bass

version 2
version 2

Whole song

1,411 views 9 this week
2 commentsread comments
1 2 3 4 5
x 3
add to favorites
×
Save as Personal and add changes to this tab that will be seen only by you. Learn more ›
×
You can save this tab as Personal to edit and correct it or add notes. All changes will be seen only by you. Learn more »
launch autoscroll
font size
0
reset
guitar tuner
backing track
0:00
0:00
edit
Autoscroll
slow
fast
+/-
esc
set tempo
stop
Author
Difficulty
-------------------------------------------------------------------------------
                     Take No Prisoners - Megadeth
-------------------------------------------------------------------------------
Tabbed by: MetalFrancis
E-mail: ---

Tuning: Standard EADG

The song it should be all slightly palm muted, but that's part of David's sound, 
so I palm muted only where it is really necessary. For the solo, those are the 
correct notes, but you maybe have to play around with it a little bit. As a tip, 
try with your left hand, while you keep pressed the 4th fret with your index 
finger, to tap with your pinky the 6th fret on G and D. On Riff 2, I'm not really 
sure about the notes played at the end of the measure, so you can improvise with 
some 032032 instead of 030000.

INTRO
G|--------------------|x4 - then it's the same riff, but without any rest between the measures
D|--------------------|
A|--------------------|
E|-2103--2105--3210---|
                                      ********************
G|-------------------|x2 -> then -> G|------------------------|x2 The speed it's the 
D|-------------------|              D|------------------------|   same as the previous riff
A|-------------------|              A|-9991010109991010109988-|   and it's 10 fret, not 1-0
E|-22233322233222110-|              E|------------------------|

RIFF 1                               .  .  .
G|-----------------|x8 -> then -> G|-----------------|x8 
D|-----------------|              D|-----------------|
A|----------0---3--|              A|-----------0---3-|
E|-2223332----22---|              E|-2--3--2-----22--|
                                     .  .  .
G|-----------------|x4 -> then -> G|-----------------|x4 
D|-----------------|              D|-----------------|
A|----------0---5--|              A|-----------0---3-|
E|-4445554----44---|              E|-2--3--2-----22--|

RIFF 2
G|--------------------------------------|
D|-4-3-2-1------------------------------|
A|---------543-2-1----------------------|
E|-----------------5-432-02-02-02-030000|

G|--------------------------------------|
D|-4-3-2-1------------------------------|
A|---------543-2-1----------------------|
E|-----------------5-432-02-02-02-020000|

G|--------------------|-------------------|
D|--------------------|-------------------|
A|--------------------|-------------------|
E|-2-02-02-02-030000--|-2-02-02-02-020000-|
                                                              T   T   T   T   T   T   T
G|--------------------------------------| -> then -> G|-------11p4----11p4----11p4----11p4|
D|-4-3-2-1------------------------------|            D|-----------11p4----11p4----11p4----|
A|---------543-2-1----------------------|            A|-----------------------------------|
E|-----------------5-432-02-02-02-020000|            E|-2/--------------------------------|

RIFF 3               ****************   \\
G|------------------------------------| ||
D|------------------------------------| ||
A|------------------------------------| ||
E|-2-02-02-02-030000-2222222222222222-| ||
                                        ||x4
                     ****************   ||
G|------------------------------------| ||
D|------------------------------------| ||
A|------------------------------------| ||
E|-2-02-02-02-020000-0000000000000000-| //
          
G|--------------------------------------|
D|-4-3-2-1------------------------------|
A|---------543-2-1----------------------|
E|-----------------5-432-02-02-02-030000|

BREAK        It's 1-0, not 10
G|--------------------------|
D|-432-4--4320--------------|
A|----4-------2-3210--10----|
E|------------------3---321-|

RIFF 4  Don't play anything while the guitars do all that badass stuff..
G|-------------------|-------------------|x2
D|-------------------|-------------------|
A|-------------------|-------------------|
E|-3-02-03-02-030000-|-3-02-03-02-020000-|
          . . .                                    **************** 
G|---------------------------|-------------------|------------------|
D|-4-5-4---------------------|-------------------|------------------|
A|--------4-5----------------|-------------------|------------------|
E|------------4--4-5-4--2-4-5|-3-02-03-02-030000-|-2222222222222222-|
          . . .                                    ****************
G|---------------------------|-------------------|------------------|
D|-4-5-4---------------------|-------------------|------------------|
A|--------4-5----------------|-------------------|------------------|
E|------------4--4-5-4--2-4-5|-3-02-03-02-020000-|-0000000000000000-|

                       ****************                       ****************
G|-------------------|------------------|-------------------|------------------|
D|-------------------|------------------|-------------------|------------------|
A|-------------------|------------------|-------------------|------------------|
E|-3-02-03-02-030000-|-2222222222222222-|-3-02-03-02-020000-|-0000000000000000-|
          . . .                      . . .
G|---------------------------|------------------------|
D|-4-5-4---------------------|-4-5-4-------4-5-4------|
A|--------4-5----------------|-------4-5---------4----|
E|------------4--4-5-4--2-4-5|-----------4---------5-5|

RIFF 1
   .  .  
G|-----------------|x8
D|-----------------|
A|-----------0---3-|
E|-2--3--2-----22--|
                                                         .  .    .  .  
G|-------------------|----------------|----------------|-----------------|x4
D|-------------------|----------------|----------------|-----------------|
A|----0--3-2--0--2-2h|333333333333333-|----0--3-2-0----|-----------------|
E|-2-----------------|----------------|-2------------3-|-2--2--0-2--2--0-|

OUTRO
   .  .    .  .      .  .    .  .   .    .   .
G|-----------------|------------------|-----------------|
D|-----------------|-4--4--2-4--4-/14-|-16--16---141516\|
A|-----------------|------------------|-----------------|
E|-2--2--0-2--2--0-|------------------|-----------------|


| *   palm mute
| x/  slide out upwards
| x\  slide out downwards
| /x  slide in from below
| h   hammer-on
| p   pull-off
| T   tapped note
| .   staccato
===============================================================================

            
            
Suggest correction
Creating personal tab
Creating personal tab
You can edit any tab online and save it as your Personal.

You can edit, replace or remove any tab part or add personal notes – all changes will be seen only by you.

Personal tabs can be accessed anytime from any device, even offline.
Learn more »
Give kudos to tab author, rate the tab!
1 2 3 4 5
comments
print report bad tab
2 comments total.
0 reply
Zaqq 589 Apr 27, 2013 03:47 AM

The whole tab seems pretty accurate compared to the bass master track, but that little solo is off.

+1 reply
MetalFrancis 1,335 Apr 27, 2013 04:11 AM

Yeah I know, anyway I'm uploading a guitar pro tab where I tabbed again the bass. Now I update this version ;)

guest
You may want to rate the tab now too:
select rating
Wanna post a correction for this tab? Suggest correction