Oops, an error
Loading. Please wait.

The Conjuring bass

version 2
version 2

Whole song

Interactive

1,268 views 3 this week
no commentswrite comment
1 2 3 4 5
x 3
add to favorites
×
Save as Personal and add changes to this tab that will be seen only by you. Learn more ›
×
You can save this tab as Personal to edit and correct it or add notes. All changes will be seen only by you. Learn more »
launch autoscroll
font size
0
reset
guitar tuner
backing track
0:00
0:00
edit
Autoscroll
slow
fast
+/-
esc
set tempo
stop
Difficulty
intermediate
Band: Megadeth
Song: The Conjuring
Album: Peace sells...But Who's Buying? (Track 2)
Bassist: David Ellefson
bass used: B.C. Rich Mockingbird

David Ellefson uses a pick on this song so it might sound better if you use a pick.

I also included the lyrics
Intro: start at 0:13
G---------------------------------------------------------------|
D---------------------------------------------------------------|
A---------------------------------------------------------------|
E-3-0-3-0-3-0-3-0-3-00-5-3-23-2-0-2-0-2-0-2-0-2-0-2222-4-2222-5-|

G--------------------------------------------------------------------||
D--------------------------------------------------------------------||
A-----------------------------------------------------------------5-7||
E-1-0-1-0-1-0-1-0-1-00-53-23-2-0-2-0-2-0-2-0-2-0-2222-4-2222-5-X4----||
 (Start at 0:26) welcome to our sanguinary sect of warship feel at home in our black 
as we anathematize all those who oppose us,
don't summon the devil, don't call the priest, if you need the strength, the conjuring, OBEY!
G-------------------------------------------------------------||
D-------------------------------------------------------------||
A-3--------3--------3--------3-5-----3--------3--------3------||
E--00000000-00000000-00000000---r-X3--00000000-00000000-0000-0||

Solo-Muistaine
bass for solo:
G--------------------------------------------------------------||
D--------------------------------------------------------------||
A--------------------------------------------------------------||
E-0-000-000-000-000-0-53-23-0-000-000-000-000-2222-4-2222-5-X4-||

Verse:
G-----------------------------------------------------------|
D-----------------------------------------------------------|
A-5-7-77777777777777777777777777777777777777777777777777777-|
E-----------------------------------------------------------|
  behold, the  flames rise from the compass' cardinal points
  burn the sacred oil and the ashes you'll anoint
G------------------------------------------------------|
D------------------------------------------------------|
A--------------------------------57-----7-----87-57----|
E-12\-0-000-000-000-000-0-53-23-0--00000-00000------X2-|

G-----------------------------------------------------------|
D-----------------------------------------------------------|
A-5-7-77777777777777777777777777777777777777777777777777777-|
E-----------------------------------------------------------|
  arrange the symbols of the wizard, and magician
  light the candles, place the parchment paper in position
G-----------------------------------------------------------|
D-----------------------------------------------------------|
A-7-9-99999999999999999999999999999999999999999999999999999-|
E-----------------------------------------------------------|
  between it's leaves, place the lash from a black cats eye
  A straw of a broom, fold and burn and centralize
G----------------------------------|
D----------------------------------|
A-------------------------3-5-7----|
E-15\-2-0000-2-0000-2-0000------X4-|
Don't summon the devil
Don't call the priest
If you need the strenth
than conjure me
Interlude
G-----------------------------------------||
D-----------------------------------------||
A----------------------876-765-654-543-X4-||
E-0------1------2-------------------------||

G------------------------------------------------------------|
D------------------------------------------------------------|
A-------------------------------5----------------------------|
E-333-0h12-3333-2-0000-42-00-00--5-2-0000-42-00-1111-33-2-X4-|
Verse 2
G-----------------------------------------------------------|
D-----------------------------------------------------------|
A-57-777777777777777777777777777777777777777777777777777777-|
E-----------------------------------------------------------|
  i am the devils advocate, a salesman if you will
G----------------------------------------------|
D----------------------------------------------|
A-57-3-3333333333333333-57--3-3333333333333333-|
E---5---------------------5--------------------|
       you know my name,      you know my name
G----------------------------------------------|
D----------------------------------------------|
A-----------------5----------------------------|
E-2-0000-42-00-00--5-2-0000-42-00-1111-33-2----|

G-----------------------------------------------------------|
D-----------------------------------------------------------|
A-57-777777777777777777777777777777777777777777777777777777-|
E-----------------------------------------------------------|
  i met your father years ago, i game him what he'd please
G----------------------------------------------|
D----------------------------------------------|
A-57-3-3333333333333333-57--3-3333333333333333-|
E---5---------------------5--------------------|
       he called my name      and you'll do the same
G----------------------------------------------|
D----------------------------------------------|
A-----------------5----------------------------|
E-2-0000-42-00-00--5-2-0000-42-00-1111-33-2----|

G-----------------------------------------------------------|
D-----------------------------------------------------------|
A-57-777777777777777777777777777777777777777777777777777777-|
E-----------------------------------------------------------|
  I'm claiming what is mine by right, it's time to close the deal
G----------------------------------------------|
D----------------------------------------------|
A-57-3-3333333333333333-57--3-3333333333333333-|
E---5---------------------5--------------------|
       your bought and sold,  bought and sold
G----------------------------------------------|
D----------------------------------------------|
A-----------------5----------------------------|
E-2-0000-42-00-00--5-2-0000-42-00-1111-33-2----|

G-----------------------------------------------------------|
D-----------------------------------------------------------|
A-57-777777777777777777777777777777777777777777777777777777-|
E-----------------------------------------------------------|
  come join me in my infernal depths, Mephisto's hall of fame
G----------------------------------------------|
D----------------------------------------------|
A-57-3-3333333333333333-57--3-3333333333333333-|
E---5---------------------5--------------------|
       I've got your soul,    I've got your soul
G-----------------------------------------------|
D-----------------------------------------------|
A------------------5----------------------------|
E--2-0000-42-00-00--5-2-0000-42-00-1111-33-2----|

I'm a bit rusty on what this part is
G-------------------------------------------------------------|
D-------------------------------------------------------------|
A-------------------------------------------------------------|
E-5-6-666-666-666-666-666-666-6-5-6-666-666-666-666-666-666-6-|

G---------------------------------------------------------|
D---------------------------------------------------------|
A------------------------------------------7H:15-----5-7--|
E-5-66-5-66-5-66-5-66-5-66-----------------0--------------|
                                                     Obey!
hope you enjoy the tab, this is probably the best ear transcription I've ever done, here 
the symbols
/=slide up \=slide down H=hold (the number next to it is the amount of seconds to hold 
r= rest

            
            
Suggest correction
Creating personal tab
Creating personal tab
You can edit any tab online and save it as your Personal.

You can edit, replace or remove any tab part or add personal notes – all changes will be seen only by you.

Personal tabs can be accessed anytime from any device, even offline.
Learn more »
Give kudos to tab author, rate the tab!
1 2 3 4 5
comments
print report bad tab
guest
Wanna post a correction for this tab? Suggest correction