Oops, an error
Loading. Please wait.

The Killing Road bass

version 1
version 1

Whole song

2,806 views 3 this week
4 commentsread comments
1 2 3 4 5
x 7
add to favorites
×
Save as Personal and add changes to this tab that will be seen only by you. Learn more ›
×
You can save this tab as Personal to edit and correct it or add notes. All changes will be seen only by you. Learn more »
launch autoscroll
font size
0
reset
guitar tuner
backing track
0:00
0:00
edit
Autoscroll
slow
fast
+/-
esc
set tempo
stop
This song is quite simple. I can't believe nobody has tabbed it yet. 
I am 100% sure about this tab

[Intro]
Gb|-------|-------------------|
Db|-------|-------------------|
Ab|-------|--3-3-3-3-2-2-2-2--|
Eb|--0-0--|-------------------|

[Verse]
Gb|-------------------------------------|-------------------------------------|
Db|-------------------------------------|-------------------------------------|
Ab|-------------------------2----2------|--------------------3-3-3-3-2-2-2-2--|
Eb|--0--0-0-0-0-0-0-0-0-2-3--------3-2--|--1-1-1-1-1-1-1-1--------------------|

[Chorus]
Gb|-------------------|
Db|---2---------------|
Ab|------2--1---------|
Eb|-0----------3--1-0-|

[Interlude]   to solo
Gb|-------|-----------------------------|
Db|-------|-----------------------------|
Ab|-------|--5h8--4h6--3h5--2h4--4-2-1--|
Eb|--0-0--|-----------------------------|

[Solo]                                                                                   to verse riff
Gb|------------------------------------------|-------------------------------||-----------------------------|
Db|------------------------------------------|-------------------------------||-----------------------------|
Ab|------------------------------------------|-------------------------------||-----------------------------|
Eb|--2--2---2-2-2-2-2-2----2--2--2--3--0--0--|--0-0-0-0-0-3-0-0-0-3-0-0-0-3--||-2-------------2---2---2---3-|

Gb|-------------------------------------|-------------------------------------|
Db|-------------------------------------|-------------------------------------|
Ab|-------------------------2----2------|--------------------3-3-3-3-2-2-2-2--|
Eb|--0--0-0-0-0-0-0-0-0-2-3--------3-2--|--1-1-1-1-1-1-1-1--------------------|

[Chorus]
Gb|-------------------|
Db|---2---------------|
Ab|------2--1---------|
Eb|-0----------3--1-0-|

            
            
Suggest correction
Creating personal tab
Creating personal tab
You can edit any tab online and save it as your Personal.

You can edit, replace or remove any tab part or add personal notes – all changes will be seen only by you.

Personal tabs can be accessed anytime from any device, even offline.
Learn more »
comments
print report bad tab
4 comments total. Showing first comments.
0 reply
basschick.mal 10 Sep 07, 2010 06:49 AM

Thank you for this tab, can i ask what tuning it's in?

-1 reply
St. Fixxxer 182 Oct 05, 2010 01:41 PM

Oh, yeah. Standard. No offense, but you should know that.

0 reply
thickice19 10 Oct 11, 2013 07:24 AM

Been playing this tab with the song lately, and just did a close listen, and I still can't hear the /13 to interlude. Other than that, it feels and seems pretty close to the song, worth learning.

guest
You may want to rate the tab now too:
select rating
Wanna post a correction for this tab? Suggest correction