Oops, an error
Loading. Please wait.
We have Chord Pro version of Tornado Of Souls.
It's the closest thing you can get to the original song and it has interactive parts. Check out the tab »
×
2,494 views 1 this week
6 commentsread comments
1 2 3 4 5
1 last vote to show rating
add to favorites
×
Save as Personal and add changes to this tab that will be seen only by you. Learn more ›
×
You can save this tab as Personal to edit and correct it or add notes. All changes will be seen only by you. Learn more »
launch autoscroll
font size
0
reset
guitar tuner
backing track
0:00
0:00
edit
Autoscroll
slow
fast
+/-
esc
set tempo
stop
Author
Difficulty
Band- Megadeth
Song- Tornado of Souls
Album- Rust in Peace

Tuning: Standard (E A D G)


This is from the bass track, you can hear it here http://www.youtube.com/watch?v=f4lqNjX0AAw
I see there is another tab wich follows it but i think this way its far more organized 
and easy to read/learn.



Intro
G|----------------------------------------------------------------||
D|----------------------------------------------------------------||
A|----------------------------------------------------------------||
E|----7-----7-7-7-----7----7-7-7-----7-----7-7-7------7-----------||





Intro 2
G|----------------------------------------------------------------||
D|--9-----------7-------------------------------------------------||
A|-----9--10--7-----7--8--5---7h-8p-7\-5-5h-7p-5\-4-4h-5p-4\-3-3--2||
E|----------------------------------------------------------------||


2x
G|----------------------------------------------------------------||
D|----------------------------------------------------------------||
A|-2--2--2-------------------------------2------------------------||
E|---------2--2--3---3--0--0--2--2--3--3--------------------------||







Verse   (This morning I made the call..)

3x
G|----------------------------------------------------------------||
D|----------------------------------------------------------------||
A|-2--2--2-------------------------------2------------------------||
E|---------2--2--3---3--0--0--2--2--3--3--------------------------||


G|----------------------------------------------------------------||
D|----------------------------------------------------------------||
A|-2--2--2-------------------------------0------------------------||
E|---------2--2--3---3--0--0--2--2--3--3--------------------------||


2x
G|----------------------------------------------------------------||
D|----------------------------------------------------------------||
A|-0--0--0-----------------3---3----------------------------------||
E|----------0--0--1----3------------------------------------------||

2x
G|----------------------------------------------------------------||
D|----------------------------------------------------------------||
A|-2--2--2-------------------------------2------------------------||
E|---------2--2--3---3--0--0--2--2--3--3--------------------------||




Chorus   (But now I'm safe in the eye of the tornado..)

3x
G|----------------------------------------------------------------||
D|----------------------------------------------------------------||
A|-------------------------------------------------5-----5---2----||
E|-2-----3------0--2--3--3--2--0--0------3--3--2------------------||


G|----------------------------------------------------------------||
D|----------------------------------------------------------------||
A|-------------------------------------------------4h5-4----2-----||
E|-2-----3------0--2--3--3--2--0--0------3--3--2----------5-------||






Verse 2  (You'll grow to loathe my name)

5x
G|----------------------------------------------------------------||
D|----------------------------------------------------------------||
A|-2--2--2-------------------------------2------------------------||
E|---------2--2--3---3--0--0--2--2--3--3--------------------------||


G|----------------------------------------------------------------||
D|----------------------------------------------------------------||
A|-2--2--2-------------------------------0------------------------||
E|---------2--2--3---3--0--0--2--2--3--3--------------------------||


2x
G|----------------------------------------------------------------||
D|----------------------------------------------------------------||
A|-0--0--0-----------------3---3----------------------------------||
E|----------0--0--1----3------------------------------------------||

2x
G|----------------------------------------------------------------||
D|----------------------------------------------------------------||
A|-2--2--2-------------------------------2------------------------||
E|---------2--2--3---3--0--0--2--2--3--3--------------------------||



Chorus   (But now I'm safe in the eye of the tornado..)

3x
G|----------------------------------------------------------------||
D|----------------------------------------------------------------||
A|-------------------------------------------------5-----5---2----||
E|-2-----3------0--2--3--3--2--0--0------3--3--2------------------||


G|----------------------------------------------------------------||
D|----------------------------------------------------------------||
A|-------------------------------------------------4h5-4----2-----||
E|-2-----3------0--2--3--3--2--0--0------3--3--2----------5-------||





Verse 3  (Who's to say, what's for me to say...be...do)


G|----------------------------------------------------------------||
D|----------------------------------------------------------------||
A|--2--------------------2----------------x--5--------------------||
E|-------x--2--3------------x--2--3-------------------------------||

G|----------------------------------------------------------------||
D|----------------------------------------------------------------||
A|--2--------------------2----------------x--5--------------------||
E|-------x--2--3------------x--2--3-------------------------------||

G|----------------------------------------------------------------||
D|----------------------------------------------------------------||
A|--0--------------------0----------------x--5--------------------||
E|-------x--0--1------------x--0--1-------------------------------||

G|----------------------------------------------------------------||
D|----------------------------------------------------------------||
A|--2--------------------2----------------x--5-2------------------||
E|-------x--2--3------------x--2--3-------------------------------||




Breakdown

(just go with the drums)
G|----------------------------------------------------------------||
D|----------------------------------------------------------------||
A|----------------------------------------------------------------||
E|---7------3------0-------2------5-------5---7-------------------||

G|----------------------------------------------------------------||
D|----------------------------------------------------------------||
A|----------------------------------------------------------------||
E|---7------3------0-0-0-----2------5-------5-5--7----------------||

G|----------------------------------------------------------------||
D|----------------------------------------------------------------||
A|----------------------------------------------------------------||
E|-7-7-7-7-7-7-7-7-7-7-7-7-7-7-7-3-3-3-3-3-3-3-3-3-3-3-3-3-3-3-0--||

G|----------------------------------------------------------------||
D|----------------------------------------------------------------||
A|----------------------------------------------------------------||
E|-0-0-0-0-0-0-0-0-0-0-0-0-0-0-2-2-2-2-2-2-2-2-5-5-5-5-5-5-5-5-7--||



Verse 4 (The land of opportunity..) Along with Interlude and Solo

G|----------------------------------------------------------------||  |
D|----------------------------------------------------------------||  |
A|----------------------------------------------------------------||  |
E|-7-7-7-7-7-7-7-7-7-7-7-7-7-7-7-3-3-3-3-3-3-3-3-3-3-3-3-3-3-3-0--||  |
                                                                      |  10x
G|----------------------------------------------------------------||  |
D|----------------------------------------------------------------||  |
A|----------------------------------------------------------------||  |
E|-0-0-0-0-0-0-0-0-0-0-0-0-0-0-2-2-2-2-2-2-2-2-5-5-5-5-5-5-5-5-7--||  |


Verse 5 (Can't say what's on my mind)

G|----------------------------------------------------------------||  |
D|----------------------------------------------------------------||  |
A|----------------------------------------------------------------||  |
E|-7-7-7-7-7-7-7-7-7-7-7-7-7-7-7-3-3-3-3-3-3-3-3-3-3-3-3-3-3-3-0--||  |
                                                                      |  2x
G|----------------------------------------------------------------||  |
D|----------------------------------------------------------------||  |
A|----------------------------------------------------------------||  |
E|-0-0-0-0-0-0-0-0-0-0-0-0-0-0-2-2-2-2-2-2-2-2-5-5-5-5-5-5-5-5-7--||  |

4x
G|----------------------------------------------------------------||
D|-------------0-----------------------0--------------------------||
A|--------0--2---2-0-2------------0--2---2------------------------||
E|--0--2-------------------0--2-----------------------------------||



Verse 6
G|----------------------------------------------------------------||
D|----------------------------------------------------------------||
A|-------------------------------5-5-5-5-5-5-5-5-5-5-5-5-5-5-5-5-5||
E|-7-7-7-7-7-7-7-7-7-7-7-7-7-7-7----------------------------------||

G|----------------------------------------------------------------||
D|-------------------------------5-5-5-5-5-5-5-5-5-5-5-5-5-5-5-5-5||
A|-7-7-7-7-7-7-7-7-7-7-7-7-7-7-7----------------------------------||
E|----------------------------------------------------------------||

G|----------------------------------------------------------------||
D|-7-7-7-7-7-7-7-7----9-9-9-9-9-9-9-9-9-9-9-9-9-9-9-9-9-----------||
A|----------------------------------------------------------------||
E|----------------------------------------------------------------||

G|-7-7-7-7-7-7-7-7-7-7-7-7-7-7-7-9-9-9-9-9-9-9-9-9-9-9-9-9-9-9-9-9||
D|----------------------------------------------------------------||
A|----------------------------------------------------------------||
E|----------------------------------------------------------------||

G|-12-12-12-12-12-12-12-12----14-14-14-14-14-14-14-14-------------||
D|----------------------------------------------------------------||
A|-------------------------------------------------------3--------||
E|----------------------------------------------------------------||

G|----------------------------------------------------------------||
D|-------------0-----------------------0--------------------------||
A|--------0--3---3-0-3------------0--3---2------------------------||
E|--0--3-------------------0--3-----------------------------------||

G|----------------------------------------------------------------||
D|-------------0-----------------------0--------------------------||
A|--------0--2---2-0-2------------0--2---3------------------------||
E|--0--2-------------------0--2-----------------------------------||

G|----------------------------------------------------------------||
D|-------------0-----------------------0--------------------------||
A|--------0--3---3-0-3------------0--3---2------------------------||
E|--0--3-------------------0--3-----------------------------------||

G|----------------------------------------------------------------||
D|-------------0-----------------------0--------------------------||
A|--------0--2---2-0-2------------0--2---3------------------------||
E|--0--2-------------------0--2-----------------------------------||

G|----------------------------------------------------------------||
D|----------------------------------------------------------------||
A|------------------------------------------2---------------------||
E|x--2--3---x--x--5--0--x--2--3---x--5---x----x--2--3-----x-x-5---||




G|----------------------------------------------------------------||
D|--7-----------5-------------------------------------------------||
A|-----8--7--5-----6--5--3---7h-8p-7\-5-5h-7p-5\-4-4h-5p-4\-3-3--2||
E|----------------------------------------------------------------||


:)

            
            
Suggest correction
Creating personal tab
Creating personal tab
You can edit any tab online and save it as your Personal.

You can edit, replace or remove any tab part or add personal notes – all changes will be seen only by you.

Personal tabs can be accessed anytime from any device, even offline.
Learn more »
Give kudos to tab author, rate the tab!
1 2 3 4 5
comments
print report bad tab
6 comments total. Showing first comments.
0 reply
slipknot836 1,839 Feb 24, 2012 07:26 AM

5 stars, easier to read than the other one ;D

0 reply
Filipus 336 Feb 25, 2012 01:17 AM

Thanks man :)

0 reply
FallenDestiny 103 Mar 29, 2012 06:42 AM

You missed a lot of fills :(

guest
You may want to rate the tab now too:
select rating
Wanna post a correction for this tab? Suggest correction