Oops, an error
Loading. Please wait.

Train Of Consequences tab

version 1
version 1

Whole song

62,959 views 63 this week
23 commentsread comments
1 2 3 4 5
x 25
add to favorites
×
Save as Personal and add changes to this tab that will be seen only by you. Learn more ›
×
You can save this tab as Personal to edit and correct it or add notes. All changes will be seen only by you. Learn more »
launch autoscroll
font size
0
reset
how to read this tab
guitar tuner
backing track
0:00
0:00
edit
Autoscroll
slow
fast
+/-
esc
set tempo
stop
Author
Unregistered
[Intro]
e|--------------------------------|-----------------------------------|
B|--------------------------------|-----------------------------------|
G|--------------------------------|------------------------__3__-__3__|
D|------------------------2p0-----|------------------------|-T-|-|-T_|
A|x-x---x---x-x-x---x---x-----2p0-|x-x---x---x-x-x---x---x-x-x-x-x-x-x|
E|x-x---x---x-x-x---x---x---------|x-x---x---x-x-x---x---x-x-x-x-x-x-x|

                                                              Play 2x
e|--------------------------------|--------------------------------|
B|--------------------------------|--------------------------------|
G|--------------------------------|--------------------------------|
D|------------------------2p0-----|------------------------3-------|
A|x-x---x---x-x-x---x---x-----2p0-|x-x---x---x-x-x---x---x-1-------|
E|x-x---x---x-x-x---x---x---------|x-x---x---x-x-x---x---x---------|

[Verse 1]
e|--------------------------------|-----------------------------------|
B|--------------------------------|-----------------------------------|
G|--------------------------------|------------------------__3__-__3__|
D|------------------------2p0-----|------------------------|-T-|-|-T_|
A|x-x---x---x-x-x---x---x-----2p0-|x-x---x---x-x-x---x---x-x-x-x-x-x-x|
E|x-x---x---x-x-x---x---x---------|x-x---x---x-x-x---x---x-x-x-x-x-x-x|

                                                              Play 2x
e|--------------------------------|--------------------------------|
B|--------------------------------|--------------------------------|
G|--------------------------------|--------------------------------|
D|------------------------2p0-----|------------------------3-------|
A|x-x---x---x-x-x---x---x-----2p0-|x-x---x---x-x-x---x---x-1-------|
E|x-x---x---x-x-x---x---x---------|x-x---x---x-x-x---x---x---------|

[Bridge]
 Let Ring-----------|             Let Ring-----------|
e|--------------------------------|--------------------------------|
B|--------------------------------|--------------------------------|
G|--------------------------------|--------------------------------|
D|-------------4------------------|------------4-------------------|
A|------4-------------------------|------4-------------------------|
E|2-------------------2-2-5-2-0---|2-------------------2-2-5-2-0---|

 Let Ring-----------|
e|--------------------------------|--------------------------------|
B|--------------------------------|--------------------------------|
G|-------------6------------------|----4---------------------------|
D|------6-------------------------|----4---------2-----0-2-0-------|
A|4---------------------4---7-4-2-|2-------5-2-0-0-----------4-0---|
E|--------------------------------|--------------------------------|
                       
[Chorus]
(Let Ring throughout)
e|--------------------------------|--------------------------------|
B|--------------------------------|--------------------------------|
G|------------9---7-----------9---|------------9---7-----------7---|
D|------9---------------9---------|------7---------------7---------|
A|7-------------------------------|5-------------------------------|
E|--------------------------------|--------------------------------|

                                                              Play 2x
e|--------------------------------|--------------------------------|
B|--------------------------------|--------------------------------|
G|--------------------------------|--------------------------------|
D|------------5---------------7---|------------5---------------7---|
A|------7---------------9---------|------7---------------4---------|
E|8---------------10--------------|8---------------5---------------|

[Verse 2]
e|--------------------------------|-----------------------------------|
B|--------------------------------|-----------------------------------|
G|--------------------------------|------------------------__3__-__3__|
D|------------------------2p0-----|------------------------|-T-|-|-T_|
A|x-x---x---x-x-x---x---x-----2p0-|x-x---x---x-x-x---x---x-x-x-x-x-x-x|
E|x-x---x---x-x-x---x---x---------|x-x---x---x-x-x---x---x-x-x-x-x-x-x|

                                                              Play 2x
e|--------------------------------|--------------------------------|
B|--------------------------------|--------------------------------|
G|--------------------------------|--------------------------------|
D|------------------------2p0-----|------------------------3-------|
A|x-x---x---x-x-x---x---x-----2p0-|x-x---x---x-x-x---x---x-1-------|
E|x-x---x---x-x-x---x---x---------|x-x---x---x-x-x---x---x---------|

[Bridge]
Let Ring-----------|             Let Ring-----------|
e|--------------------------------|--------------------------------|
B|--------------------------------|--------------------------------|
G|--------------------------------|--------------------------------|
D|-------------4------------------|------------4-------------------|
A|------4-------------------------|------4-------------------------|
E|2-------------------2-2-5-2-0---|2-------------------2-2-5-2-0---|

Let Ring-----------|
e|--------------------------------|--------------------------------|
B|--------------------------------|--------------------------------|
G|-------------6------------------|----4---------------------------|
D|------6-------------------------|----4---------2-----0-2-0-------|
A|4---------------------4---7-4-2-|2-------5-2-0-0-----------4-0---|
E|--------------------------------|--------------------------------|

 [Chorus]
 (Let Ring throughout)
e|--------------------------------|--------------------------------|
B|--------------------------------|--------------------------------|
G|------------9---7-----------9---|------------9---7-----------7---|
D|------9---------------9---------|------7---------------7---------|
A|7-------------------------------|5-------------------------------|
E|--------------------------------|--------------------------------|

                                                              Play 2x
e|--------------------------------|--------------------------------|
B|--------------------------------|--------------------------------|
G|--------------------------------|--------------------------------|
D|------------5---------------7---|------------5---------------7---|
A|------7---------------9---------|------7---------------4---------|
E|8---------------10--------------|8---------------5---------------|

[Solo]
 Dave's Riff (Play 5x)
e|--------------------------------|--------------------------------|
B|--------------------------------|--------------------------------|
G|--------------------------------|--------------------------------|
D|----------------------------2---|--------------7---7-7-7-7-6-5---|
A|5h7-----8-7-5-7--\2~~~~~5-------|3h5-----3h5/7-----------------7-|
E|----0-0-------------------------|----3h5-------------------------|

                                   * Marty Starts Here!
e|--------------------------------|--------------------------------|
B|--------------------------------|--------------------------------|
G|--------------------------------|--------------------------------|
D|--------------------------------|----------------------------7---|
A|3-----x-3p0-------2-----5---7---|0h3---x-x-3p0-------4---7-------|
E|------------3h5---0-----3---5---|--------------3h5---------------|

Marty: 
(Ignore This!)

  tr             /hold bend\         
e|-------------b------------------|--------------------------------|
B|12(15)-----15-17~~~~~---17b15p12|15b17---------------------------|
G|--------------------------------|--------------------------------|
D|--------------------------------|--------------------------------|
A|--------------------------------|--------------------------------|
E|--------------------------------|--------------------------------|

 [Chorus]
 (Let Ring throughout)
e|--------------------------------|--------------------------------|
B|--------------------------------|--------------------------------|
G|------------9---7-----------9---|------------9---7-----------7---|
D|------9---------------9---------|------7---------------7---------|
A|7-------------------------------|5-------------------------------|
E|--------------------------------|--------------------------------|

                                                              Play 3x
e|--------------------------------|--------------------------------|
B|--------------------------------|--------------------------------|
G|--------------------------------|--------------------------------|
D|------------5---------------7---|------------5---------------7---|
A|------7---------------9---------|------7---------------4---------|
E|8---------------10--------------|8---------------5---------------|

e|--------------------------------|--------------------------------|
B|--------------------------------|--------------------------------|
G|------------9---7-----------9---|------------9---7-----------7---|
D|------9---------------9---------|------7---------------7---------|
A|7-------------------------------|5-------------------------------|
E|--------------------------------|--------------------------------|

                                   * Not sure about this bit ;{
e|--------------------------------|--------------------------------|
B|--------------------------------|--------------------------------|
G|--------------------------------|--------------------------------|
D|------------5---------------7---|--------------------------------|
A|------7---------------9---------|------10--------9-----10----9---|
E|8---------------10--------------|12----------12------------------|

 [Harmonica Solo]
e|--------------------------------|-----------------------------------|
B|--------------------------------|-----------------------------------|
G|--------------------------------|------------------------__3__-__3__|
D|------------------------2p0-----|------------------------|-T-|-|-T_|
A|x-x---x---x-x-x---x---x-----2p0-|x-x---x---x-x-x---x---x-x-x-x-x-x-x|
E|x-x---x---x-x-x---x---x---------|x-x---x---x-x-x---x---x-x-x-x-x-x-x|

                                                              Play 3x
e|--------------------------------|--------------------------------|
B|--------------------------------|--------------------------------|
G|--------------------------------|--------------------------------|
D|------------------------2p0-----|------------------------3-------|
A|x-x---x---x-x-x---x---x-----2p0-|x-x---x---x-x-x---x---x-1-------|
E|x-x---x---x-x-x---x---x---------|x-x---x---x-x-x---x---x---------|


[Rhy.Fig.1]
e|-----------------------------------|
B|-----------------------------------|
G|*----------------------------------|
D|*--x-x---x---x-x-x---x---x-2^0-----|
A|---x-x---x---x-x-x---x---------2^0-|
E|---x-x---x---x-x-x---x-------------|

e|----------------------------------------|----------------------------|
B|----------------------------------------|----------------------------|
G|----------------------------------------|----------------------------|
D|----x-x---x---x-x-x---x---x-x-x-x-x-x-x-|x-x---x---x-x-x---x-2^0-----|
A|----x-x---x---x-x-x---x---x-x-x-x-x-x-x-|x-x---x---x-x-x---------2^0-|
E|----x-x---x---x-x-x---x---x-x-x-x-x-x-x-|x-x---x---x-x-x-------------|

                          end Rhy.Fig.1
e|------------------------------------|
B|------------------------------------|
G|-----------------------------------*|
D|----x-x---x---x-x-x---x---x-8--(8)\*|
A|----x-x---x---x-x-x---x---x-8--(8)\-|
E|----x-x---x---x-x-x---x---x-6--(6)\-|
                                 I'm             
w/Rhy.Fig.1 (2 times)
                                  
doing you a favor as i'm taking all your money.                I
guess i should feel sorry, but i don't even trust me.  There's some
bad news creeping up, and you feel a sudden chill.   How do you do?
My name is trouble. I'm coming in for the kill.

[Pre-chorus]
     let ring.......|           let ring......|  P.M.....|
e|-----------------------------|-----------------------------|
B|-----------------------------|-----------------------------|
G|-----------------------------|-----------------------------|
D|-------------4---------------|---------4-------------------|
A|---------4-------------------|-----4-----------------------|
E|----2-------------2--3^2-0---|2----------2-----2-2-3-2-0---|
                   In for the     kill

     let ring.........|          let ring|
e|---------------------------------|---------------------------|
B|---------------------------------|---------------------------|
G|--------------6------------------|----4----------------------|
D|---------6-----------------------|----4-----------2----------|
A|----4---------------4----5^4^0-2-|(2)---5-4-2-0---0--5-4-0---|
E|---------------------------------|---------------------------|
               Ooh   and you know I will          ooh.

[Chorus]
(Rhy.Fig.2)
      let ring....................| let ring..................|
e|----------------0--------------0-|------------0------------0--|
B|--------------------3------------|----------------3-----------|
G|----------1---------------1------|------2-------------2-------|
D|----2----------------------------|0---------------------------|
A|---------------------------------|----------------------------|
E|---------------------------------|----------------------------|
     Set the ball arollin', I'll be clicking off the miles on the

                                               (end Rhy.Fig.2)
e|-------------------------------|---------------------------|
B|-------------------------------|---------------------------|
G|-------------------------------|------------------------2--|
D|--------2----5--------4----7---|-----2---5-----------------|
A|---3-------------5-------------|3-----------0------4-------|
E|-------------------------------|---------------------------|
    train of consequenses   my boxcar   life o' style.   My

(Rhy.Fig.3)
e|--------------------------------|--------------------------------|
B|--------------------------------|--------------------------------|
G|--------------------------------|--------------------------------|
D|---0^2-x-x-3^2^0-2--------0--2--|--------------7---7-7-7-7-6-5---|
A|---------------------2~~~~------|3^5-------3/7-----------------7-|
E|--------------------------------|----0^3^5-----------------------|
                                              
e|--------------------------------|-----------------------------12-------|
B|--------------------------------|12~~~~~~~~~~~15b17--(15)~~~~~---15-12-|
G|--------------------------------|--------------------------------------|
D|--------------------------------|--------------------------------------|
A|--------------------------------|--------------------------------------|
E|--------------------------------|--------------------------------------|
                                                           
                                                           (end Rhy.Fig.3)
e|--------------------------------|--------------------------------------|
B|--------------------------------|--------------------------------------|
G|--------------------------------|--------------------------------------|
D|------------------2-------------|5-------5--------------------2--------|
A|----3---x-x-3^0---0---2----5-7--|3---x-x-3^0---0---------3-------------|
E|----------------3-----0----3-5--|------------3-----3b5-----------------|

[Guitar solo]
 w/Rhy.Fig.3 (3 times)
e|----------------------12-------|------------------------------------------|
B|----15b17~~~~~~~~~~~~~---14^12-|------------------------------14-12-------|
G|-------------------------------|14b16--(16)r(14)^12-14~~~~~~~~------14-12-|      
D|-------------------------------|------------------------------------------|
A|-------------------------------|------------------------------------------|
E|-------------------------------|------------------------------------------|

e|--------------------------|------------------------------------0-0-|
B|--------------------------|------------------------------------0-0-|
G|--------------------------|----------------------------------------|
D|---12^14~~~~~~~~~12\10----|----------------------------------------|
A|--------------------------|12^10^12^10-12^13^12^10-----------------|
E|--------------------------|------------------------12~~~(12)\------|

e|---0---0-0-0---0-0-0---0-0-0---0-0-|0---10-----10-----10-10/12-10----------|
B|---5---5-5-3---3-3-5---5-5/8---8-8/|10----10-----10---------------12-11-10-|
G|-----------------------------------|---------------------------------------|
D|-----------------------------------|---------------------------------------|
A|-----------------------------------|---------------------------------------|
E|-----------------------------------|---------------------------------------|

e|----------------------------------------|
B|----------------------------------------|
G|---12/\/\/\/\/\(12)\x/12-14-15-16-15-14-|
D|----------------------------------------|
A|----------------------------------------|
E|----------------------------------------|

e|-------------------------------------------------------------------|
B|-------------------------------------------------------------------|
G|-12-14-15-16-15-14-12-----14b16r14^12----14-12~~~~~~~~~~~~12-14b16-|
D|-----------------------14-------------14---------------------------|
A|-------------------------------------------------------------------|
E|-------------------------------------------------------------------|

e|---------------------12----------------------12-------------------|
B|------12-15-------12----------12-15-------12----------12-15-------|
G|--(16)------14b16-------14b16-------14b16-------14b16-------14b16-|
D|------------------------------------------------------------------|
A|------------------------------------------------------------------|
E|------------------------------------------------------------------|

e|-------12----------------12-------------15b17~~~~~~~~~~15-14--|
B|-12^15----15-12----12^15----15-12----12-----------------------|
G|----------------14----------------14--------------------------|
D|--------------------------------------------------------------|
A|--------------------------------------------------------------|
E|--------------------------------------------------------------|

e|---15~~~~15~~~~~~(15)\---------|---------14-15--17^15-14--15--17--19^17-15-|
B|-------------------------------|------17-----------------------------------|
G|-------------------------------|---16--------------------------------------|
D|-------------------------14-16-|17-----------------------------------------|
A|-------------------------------|-------------------------------------------|
E|-------------------------------|-------------------------------------------|

e|-17--19-20--22-|
B|---------------|
G|---------------|
D|---------------|
A|---------------|
E|---------------|

            
            
Suggest correction
Creating personal tab
Creating personal tab
You can edit any tab online and save it as your Personal.

You can edit, replace or remove any tab part or add personal notes – all changes will be seen only by you.

Personal tabs can be accessed anytime from any device, even offline.
Learn more »
comments
print report bad tab
23 comments total. Showing first comments.
+2 reply
SetMyAngerFree 10 Oct 03, 2006 04:18 PM

nice tab and the logo made from the numbers and letters kick ass

+1 reply
RobG&D 76 Oct 07, 2006 03:52 AM

good tab, nice solo.

+1 reply
hellsing666 71 Nov 02, 2006 12:41 PM

cool title effect

guest
Wanna post a correction for this tab? Suggest correction