Oops, an error
Loading. Please wait.

Trust Tab

version 1
version 1
62,553 views 21 this week
7 commentsread comments
1 2 3 4 5
x 15
add to favorites
launch autoscroll
font size
0
reset
how to read this tab
guitar tuner
backing track
0:00
0:00
×
Best way to learn
"Trust"
Autoscroll
slow
fast
+/-
esc
set tempo
stop
[Note] Played with heavy distortion throughout
 At the beginning it fades in with these chords:
e|-------------------------------------------|
B|-------------------------------------------|
G|--------------9---------5------2-----------|
D|--------------9---------5------2------3----|
A|--------------7---------3------0------3----|
E|--------------------------------------1----|

 As it goes on the guitar gets louder, then it goes into this riff
 [Riff A]
e|-----------------------------------------------------------|
B|-----------------------------------------------------------|
G|-----------------------------------------------------------|
D|-----------------------------------------------------------|
A|-------7-------------7--------------7-----------------7----|
E|-----0---8-7-------0---8----7----0----8-7--------0-----8-7-|

e|---------------------------|
B|---------------------------|
G|---------------------------|
D|---------------------------|
A|-------7-----------5-------|
E|----0----6-5----0---0--6/8-|

Then it repeats and goes into the verse
During the verse it goes into this riff
[Riff B]
e|------------------------------------------------------------------------------|
B|------------------------------------------------------------------------------|
G|---9-------------------5---------------------2--------------------------------|
D|---9-------------------5---------------------2-----------------3--------------|
A|---7-------------------3---------------------0-----------------3--------------|
E|--------0-0-0-0-0-0---------0-0-0-0-0-0----0-0-0-0-0-0--1-0-0-0-0-0-----------|
          P.M.-------------}  P.M.--------------} P.M.--------------------------|

e|-------------------------------------------------------------|
B|-------------------------------------------------------------|
G|---9------------------5-------4-------2-----------------3----|
D|---9------------------3-------4-------2-----------------3----|
A|---7------------------3-------2-------0-----------------3----|
E|------0-0-0-0-0-0------0-0-----0-0---0-0-0-0-0-0--1----------|
           P.M.----------}P.M.-}   P.M.--}P.M.-----------------|
Then it repeats. Right before it goes into the chorus and you play the F5

chord.
for the last time it goes...
e|----------------------|
B|----------------------|
G|----------------------|
D|--3--3-3-3-3-3-3------|
A|--3--3-3-3-3-3-3------|
E|--1--1-1-1-1-1-1------|
       P.m.-----}

Then during the chorus, you play [Riff A]

Well, that's all I have figured out
[Note] P.M.- right hand ( picking hand ) palm muting
       /- slide up

Lyrics

[Verse 1]
Lost in a dream
Nothing's what it seems
Searching my head
For the words that you said

Tears filled my eyes
as we said our last goodbyes
This sad scene replays
Of you walking away

[Chorus]
My body aches from mistakes
Betrayed by lust
We liedto each other so much
That in nothing we trust

[Verse 2]
Time and again
She repeats let's be friends
I smile and say yes
Another truth bends
I must confess

I try to let go, but I know
We'll never end till were dust
We lied to each other again
I wish I could trust
But I wish I could trust

[Chorus]
My body aches from mistakes
Betrayed by lust
We liedto each other so much
That in nothing we trust

God help me please on my knees
Betrayed by lust
We lied to each other so much
Now there's nothing we trust

[Outro]
How could this be happening to me?
I'm lying when I say trust me
I can't believe this is true
Trust hurts
Why does trust equal suffering

Absolutely nothing we trust
Suggest correction
comments
print report bad tab
7 comments total. Showing first comments.
0 reply
Ac_Dc_RoCkS 30 Nov 08, 2003 07:00 PM

ya...nooo...lol

0 reply
Bubonic Chronic 310 Apr 02, 2004 07:00 PM

At least make sure you know the WHOLE SONG before tabbing, thank you. Anyone can figure out the main riff and chords.

***, I even figured out the solos. I was just hoping for some insight into the acoustic interlude as it is rather complex.

0 reply
lVl lVl_4life 10 Dec 28, 2004 07:00 PM

its right except for the ***ING SOLO!!! AHH

guest
You may want to rate the tab now too:
select rating
Wanna post a correction for this tab? Suggest correction