Oops, an error
Loading. Please wait.

Trust Bass Tab

version 3
version 3
33,792 views 42 this week
2 commentsread comments
1 2 3 4 5
accurate
x 13
add to favorites
launch autoscroll
font size
0
reset
guitar tuner
Autoscroll
slow
fast
+/-
esc
set tempo
stop
Help us to improve Ultimate-Guitar.com Take our survey!
×
Band: Megadeth
Song: Trust
Album: Cryptic Writings (1997)
Bassist: Dave Ellefson
Tuning: Standard

Intro
                                     Alternative way
G|--------------------------------| |-------------------------------|
D|-17--14--10--7/--17--14--10--12-| |--------10--7/--17------10--12-|
A|-19--15--12--8/--19--15--12--13-| |-7--10--12--8/--19--10--12--13-|
E|--------------------------------| |-0--8---------------8----------|

G|---------------------------------------------------------|
D|----------------------2----------------------------------|
A|------------------3-3---3--3-3-0-0-3-0--0-0-----0--------|
E|-0-0-0-0-3-0--0-0---------------------------1-1---1--1-1-|

G|------------------------------------------------------|
D|------------------2-----------------------------------|
A|--------------3-3---3--3-3-0-0-3-0--0-0-1--1-1-1--1-1-|
E|-0-0-3-0--0-0-----------------------------------------|

G|-----------------------------------------------------|
D|------------------2----------------------------------|
A|--------------3-3---3--3-3-0-0-3-0--0-0-----0--------|
E|-0-0-3-0--0-0---------------------------1-1---1--1-1-|

G|------------------------------------------------------------|
D|------------------2-----------------------------------------|
A|--------------3-3---3--3-3-0-0-3-0--0-0---------------------|
E|-0-0-3-0--0-0---------------------------1--1111111111111111-|

G|--------------------------------------------------------------|
D|--------------------------------------------------------------| x2
A|-----------------3-3-3-3-3-3-3-3----------------------5-------|
E|-0-0-0-0-0-0-0-0-----------------5-5-5-5-5-5-5-6--5-0---0-6-8-|

Verse 1

G|-------------------------------------------------------------|
D|-------------------------------------------------------------|
A|-7--------------3--------------0-----------------------------|
E|----0-0-0-0-0-0----0-0-0-0-0-0----0-0-0-0-0-0-1--0-0-0-0-0-0-|

G|------------------------------------------------------------|
D|------------------------------------------------------------|
A|-7--------------3------2------0-----------------------------|
E|----0-0-0-0-0-0----0-0----0-0----0-0-0-0-0-0-1--0-0-0-0-0-0-|

G|-------------------------------------------------------------|
D|-------------------------------------------------------------|
A|-7--------------3--------------0-----------------------------|
E|----0-0-0-0-0-0----0-0-0-0-0-0----0-0-0-0-0-0-1--0-0-0-0-0-0-|

G|--------------------------------------------------------|
D|--------------------------------------------------------|
A|-7--------------3------2---5---0------------------------|
E|----0-0-0-0-0-0----0-0---0---0---0-0-0-0-0-0-1--1111111-|

Chorus

G|--------------------------------------------------------------|
D|--------------------------------------------------------------| x2
A|-----------------3-3-3-3-3-3-3-3----------------------5-------|
E|-0-0-0-0-0-0-0-0-----------------5-5-5-5-5-5-5-6--5-0---0-6-8-|

Verse 2

G|-------------------------------------------------------------|
D|-------------------------------------------------------------|
A|-7--------------3--------------0-----------------------------|
E|----0-0-0-0-0-0----0-0-0-0-0-0----0-0-0-0-0-0-1--0-0-0-0-0-0-|

G|------------------------------------------------------------|
D|------------------------------------------------------------|
A|-7--------------3------2------0-----------------------------|
E|----0-0-0-0-0-0----0-0----0-0----0-0-0-0-0-0-1--0-0-0-0-0-0-|

G|-------------------------------------------------------------|
D|-------------------------------------------------------------|
A|-7--------------3--------------0-----------------------------|
E|----0-0-0-0-0-0----0-0-0-0-0-0----0-0-0-0-0-0-1--0-0-0-0-0-0-|

G|--------------------------------------------------------|
D|--------------------------------------------------------|
A|-7--------------3------2---5---0------------------------|
E|----0-0-0-0-0-0----0-0---0---0---0-0-0-0-0-0-1--1111111-|

Chorus

G|--------------------------------------------------------------|
D|--------------------------------------------------------------| x4
A|-----------------3-3-3-3-3-3-3-3----------------------5-------|
E|-0-0-0-0-0-0-0-0-----------------5-5-5-5-5-5-5-6--5-0---0-6-8-|

Interlude

G|------------------------------|
D|-7--7h10----------------------|
A|---------8--5--5h8-------8/12-|
E|-------------------6--5-------|

G|----------------------------------------------------|
D|----------------------------------------------------|
A|----------------------------------------------------|
E|-3-5--5-5-5-5-5-5-5-5-5-5-5-5-5-5-5-5-5-5-5-5-5-5-5-|

Guitar solo

G|--------------------------------------------------------------|
D|--------------------------------------------------------------| x4
A|-----------------3-3-3-3-3-3-3-3----------------------5-------|
E|-0-0-0-0-0-0-0-0-----------------5-5-5-5-5-5-5-6--5-0---0-6-8-|

Chorus

G|--------------------------------------------------------------|
D|--------------------------------------------------------------| x7
A|-----------------3-3-3-3-3-3-3-3----------------------5-------|
E|-0-0-0-0-0-0-0-0-----------------5-5-5-5-5-5-5-6--5-0---0-6-8-|

G|----------------------------------------------------------------|
D|----------------------------------------------------------------|
A|-----------------3-3-3-3-3-3-3-3----------------------5---------|
E|-0-0-0-0-0-0-0-0-----------------5-5-5-5-5-5-5-6--5-0---0-6-8-0-|

Legend
------
| /    = slide up
| h    = hammer-on
Suggest correction
comments
print report bad tab
2 comments total.
0 reply
Lozoya 10 wrote on May 3 2013, 04:25 pm

I think interlude needs a little bit of work, otherwise great tab

0 reply
thickice19 10 wrote on November 9 2013, 01:09 pm

Yeah, the beginning of the interlude, almost a bass solo part isn't right. But other than that, pretty much an accurate tab.

guest
You may want to rate the tab now too:
select rating
Please do not post tabs as comments. Select "correction" instead!