Oops, an error
Loading. Please wait.

Trust Bass Tab

version 4
version 4
2,494 views 12 this week
6 commentsread comments
1 2 3 4 5
accurate
x 7
add to favorites
launch autoscroll
font size
0
reset
guitar tuner
Autoscroll
slow
fast
+/-
esc
set tempo
stop
Help us to improve Ultimate-Guitar.com Take our survey!
×
Author
Difficulty
intermediate
-------------------------------------------------------------------------------
                             Trust - Megadeth
-------------------------------------------------------------------------------
Tabbed by: phantomlord114
E-mail: phantomlord114@eplus.net

Tuning: Standard

G|-----------------------------------|
D|-17--14--10--7/--17--14--10--12-12-|
A|-19--15--12--8/--19--15--12--13-13-|
E|-----------------------------------|

G|-----------------------------------------------------------|
D|----------------------2------------------------------------|
A|------------------3-3---3--3-3-0-0-0-3-0--0-0-----0--------|
E|-0-0-0-0-3-0--0-0-----------------------------1-1---1--1-1-|

G|----------------------------------------------------------|
D|--------------------2-------------------------------------|
A|----------------3-3---3--3-3-0-0-0-3-0--0-0-1--1-1-1--1-1-|
E|-0-0-0-3-0--0-0-------------------------------------------|

G|---------------------------------------------------------|
D|--------------------2------------------------------------|
A|----------------3-3---3--3-3-0-0-0-3-0--0-0-----0--------|
E|-0-0-0-3-0--0-0-----------------------------1-1---1--1-1-|

G|-------------------------------------------------------------|
D|--------------------2----------------------------------------|
A|----------------3-3---3--3-3-0-0-0-3-0--0-0------------------|
E|-0-0-0-3-0--0-0-----------------------------11111111111111111|

G|---------------------------------------------------------------|
D|---------------------------------------------------------------|
A|---------------3-3-3-3-3-3-3-3-3----------------------5-----3--|
E|-0-0-0-0-0-0-0-------------------5-5-5-5-5-5-5-6--5-0---0-6----|

G|----------------------------------------------------------------|
D|----------------------------------------------------------------|
A|---------------3-3-3-3-3-3-3-3-3----------------------5-----3---|
E|-0-0-0-0-0-0-0-------------------5-5-5-5-5-5-5-6--5-0---0-6---0-|

G|-------------------------------------------------------------|
D|-------------------------------------------------------------|
A|-7--------------3--------------------------------------------|
E|----0-0-0-0-0-0----0-0-0-0-0-0-5--0-0-0-0-0-0-1--0-0-0-0-0-0-|

G|------------------------------------------------------------|
D|------------------------------------------------------------|
A|-7--------------3------2------------------------------------|
E|----0-0-0-0-0-0----0-0----0-0-5--0-0-0-0-0-0-1--0-0-0-0-0-0-|

G|-------------------------------------------------------------|
D|-------------------------------------------------------------|
A|-7--------------3--------------------------------------------|
E|----0-0-0-0-0-0----0-0-0-0-0-0-5--0-0-0-0-0-0-1--0-0-0-0-0-0-|

G|--------------------------------------------------------|
D|--------------------------------------------------------|
A|-7--------------3------2---5----------------------------|
E|----0-0-0-0-0-0----0-0---0---0-5--0-0-0-0-0-0-1-1111111-|

G|---------------------------------------------------------------|
D|---------------------------------------------------------------|
A|---------------3-3-3-3-3-3-3-3-3----------------------5-----3--|
E|-0-0-0-0-0-0-0-------------------5-5-5-5-5-5-5-6--5-0---0-6----|

G|---------------------------------------------------------------|
D|-------------2p0-----------------------------------------------|
A|-----------------3-3-3-3-3-3-2-2----------------------5-----3--|
E|-0-0-0-0-2-3---------------------5-5-5-5-5-5-5-6--5-0---0-6----|

G|-------------------------------------------------------------|
D|-------------------------------------------------------------|
A|-7--------------3--------------------------------------------|
E|----0-0-0-0-0-0----0-0-0-0-0-0-5--0-0-0-0-0-0-1--0-0-0-0-0-0-|

G|------------------------------------------------------------|
D|------------------------------------------------------------|
A|-7--------------3------2------------------------------------|
E|----0-0-0-0-0-0----0-0----0-0-5--0-0-0-0-0-0-1--0-0-0-0-0-0-|

G|-------------------------------------------------------------|
D|-------------------------------------------------------------|
A|-7--------------3--------------------------------------------|
E|----0-0-0-0-0-0----0-0-0-0-0-0-5--0-0-0-0-0-0-1--0-0-0-0-0-0-|

G|---------------------------------------------------------|
D|---------------------------------------------------------|
A|-7--------------3------2---5------------------/8-8888888-|
E|----0-0-0-0-0-0----0-0---0---0-5--0-0-0-0-0-0------------|

G|---------------------------------------------------------------|
D|---------------------------------------------------------------|
A|---------------3-3-3-3-3-3-3-3-3----------------------5-----3--|
E|-0-0-0-0-0-0-0-------------------5-5-5-5-5-5-5-6--5-0---0-6----|

G|---------------------------------------------------------------|
D|---------------------------------------------------------------|
A|---------------3-3-3-3-3-3-3-2-2----------------------5-----3--|
E|-0-0-0-0-0-0-0-------------------5-5-5-5-5-5-5-6--5-0---0-6----|

G|---------------------------------------------------------------|
D|---------------------------------------------------------------|
A|---------------3-3-3-3-3-3-3-3-3----------------------5-----3--|
E|-0-0-0-0-0-0-0-------------------5-5-5-5-5-5-5-6--5-0---0-6----|

G|---------------------------------------------------------------|
D|-------------2p0-----------------------------------------------|
A|-----------------3-3-3-3-3-3-2-2----------------------5-----3--|
E|-0-0-0-0-2-3---------------------5-5-5-5-5-5-5-6--5-0---0-6----|

G|---------------------------------------------|
D|-------7---7-5---------------8---8-----------| Bass tacets until acostic guitar
A|-0---7---------5-----------8-------8-0---/12-| comes in. Listen closely for timing.
E|-----------------3---3-6-9-------------------|

G|---------------------------------------------------|
D|---------------------------------------------------|
A|----------------------------------------------0/12-|
E|-3-5--5-5-5-5-5-5-5-5-5-5-5-5-5-5-5-5-5-5-5-5------|

G|---------------------------------------------------------------|
D|---------------------------------------------------------------|
A|---------------3-3-3-3-3-3-3-3-3----------------------5-----3--|
E|-0-0-0-0-0-0-0-------------------5-5-5-5-5-5-5-6--5-0---0-6----|

G|---------------------------------------------------------------|
D|---------------------------------------------------------------|
A|---------------3-3-3-3-3-3-3-2-2----------------------5-----3--|
E|-0-0-0-0-0-0-0-------------------5-5-5-5-5-5-5-6--5-0---0-6----|

G|---------------------------------------------------------------|
D|---------------------------------------------------------------|
A|---------------3-3-3-3-3-3-3-3-3----------------------5-----3--|
E|-0-0-0-0-0-0-0-------------------5-5-5-5-5-5-5-6--5-0---0-6----|

G|---------------------------------------------------------------|
D|-------------2p0-----------------------------------------------|
A|-----------------3-3-3-3-3-3-2-2----------------------5-----3--|
E|-0-0-0-0-2-3---------------------5-5-5-5-5-5-5-6--5-0---0-6----|

G|---------------------------------------------------------------|
D|---------------------------------------------------------------|
A|---------------3-3-3-3-3-3-3-3-3----------------------5-----3--|
E|-0-0-0-0-0-0-0-------------------5-5-5-5-5-5-5-6--5-0---0-6----|

G|---------------------------------------------------------------|
D|---------------------------------------------------------------|
A|---------------3-3-3-3-3-3-3-2-2----------------------5-----3--|
E|-0-0-0-0-0-0-0-------------------5-5-5-5-5-5-5-6--5-0---0-6----|

G|---------------------------------------------------------------|
D|---------------------------------------------------------------|
A|---------------3-3-3-3-3-3-3-3-3----------------------5-----3--|
E|-0-0-0-0-0-0-0-------------------5-5-5-5-5-5-5-6--5-0---0-6----|

G|---------------------------------------------------------------|
D|-------------2p0-----------------------------------------------|
A|-----------------3-3-3-3-3-3-2-2----------------------5-----3--|
E|-0-0-0-0-2-3---------------------5-5-5-5-5-5-5-6--5-0---0-6----|

G|---------------------------------------------------------------|
D|---------------------------------------------------------------|
A|---------------3-3-3-3-3-3-3-3-3----------------------5-----3--|
E|-0-0-0-0-0-0-0-------------------5-5-5-5-5-5-5-6--5-0---0-6----|

G|-------------------------------------------------------------------------|
D|-------------2p0---------------------------------------------12-------10-|
A|-----------------3-3-3-3-3-3-/12-12-12-12-12-12-12-13--12----------13----|
E|-0-0-0-0-2-3----------------------------------------------12----12-------|

G|---------------------------------------------------------------|
D|---------------------------------------------------------------|
A|---------------3-3-3-3-3-3-3-3-3----------------------5-----3--|
E|-0-0-0-0-0-0-0-------------------5-5-5-5-5-5-5-6--5-0---0-6----|

G|-----------------------------------------------------------------|
D|-------------2p0-------------------------------------------------|
A|-----------------3-3-3-3-3-3-2-2----------------------5-----3----|
E|-0-0-0-0-2-3---------------------5-5-5-5-5-5-5-6--5-0---0-6----0-|

| /  slide up
| \  slide down
| h  hammer-on
| p  pull-off
| ~  vibrato
| +  harmonic
| x  Mute note
===============================================================================
Suggest correction
comments
print report bad tab
6 comments total. Showing first comments. show 1 bad comment
0 reply
FallenDestiny 103 wrote on July 3 2012, 01:14 pm

Damn accurate!

0 reply
Kaseke 398 wrote on July 7 2012, 12:36 pm

Perfect :)

guest
You may want to rate the tab now too:
select rating
Please do not post tabs as comments. Select "correction" instead!