Oops, an error
Loading. Please wait.

United Abominations Tab

version 1
version 1

Whole song

Interactive

8,053 views 3 this week
4 commentsread comments
1 2 3 4 5
x 3
add to favorites
launch autoscroll
font size
0
reset
how to read this tab
guitar tuner
Autoscroll
slow
fast
+/-
esc
set tempo
stop
Help us to improve Ultimate-Guitar.com Take our survey!
×
Author
Difficulty
novice
Megadeth - United Abominations (parts)




Intro

--------------------------------------------|
--------------------------------------------|
-------7--6------------7--9-----------------|
-------5--5------------5--5-----------------|
----5---------------5-----------------------|
-3---------------3--------------------------|

Intro Overlay (When dave starts talking and drums start up)

-----------------------------------------|
-----------------------------------------|
-----------------------------------------|
-----------------------------------------|
-----------------------------------------|
-3-7-6-5~----3-7-6-8~--------------------|


Verse Riff (Listen to get rhythm)

-----------------------------------------------|
-----------------------------------------------|
-----------------------------------------------|
-----------------------------------------------|
-2-----------------------3---------------------|
-0--0-0-0--0--0000-0000--1--1-1-1--1-1111-1111-|

-----------------------------------------------|
-----------------------------------------------|
-----------------------------------------------|
-5-------------7-------------------------------|
-3-------------5-------------------------------|
-3-2-0-2-3-2-0-5-3-0-3-5-3-2-------------------|


Chorus
------------------------------------------------------------------------|
------------------------------------------------------------------------|
------------------------------------------------------------------------|
----------0----2-------5----------------------0---2-------5-------7-----|
-------/2----2---2-------------------------/2---2---2-------------------|
-0-0-0-------------2h3---3-2-3-2-1-0-0-0-0------------2h3---3-3/5---5---|

------------------------------------------------------------------------|
------------------------------------------------------------------------|
------------------------------------------------------------------------|
--------5--7------------7----------------5---7--------------------------|
-3~---7--7---7---5~---9---9-7-9---3~---7---7---7---5-3-2---3-2----------|
---------------------------------------------------------5-----5--------|

Then it goes back into the intro overlay
Then Verse

Solo Rhythm
-------------------------------------------------------------------------|
-------------------------------------------------------------------------|
-------------------------------------------------------------------------|
-------------------------------------------------------------------------|
-9-------7-------6-------5-------4/5-----4/5-----4/5-----------0-1-2-----|
-7-7-7-7-5-5-5-5-4-4-4-4-3-3-3-3-2/3-3-3-2/3-3-3-2/3-0-1-2-3-4-----------|

I started drovers solo, but didn't want to finish it cause it had some sweeps
that i couldn't figure out

Back to verse
Then chorus
Then intro to finish
Suggest correction
Give kudos to tab author, rate the tab!
1 2 3 4 5
comments
print report bad tab
4 comments total. Showing first comments.
0 reply
Masturbasser 60 May 18, 2007 12:40 AM

Awesome tab! Thanks!

0 reply
sirhc1 10 May 24, 2007 03:21 PM

nice, i was wondering for a while how to get that intro down.. turn out I was right :p

0 reply
DarthChop 30 Nov 01, 2007 12:10 PM

what drugs arwe you guys on!?!
Refer to another version... this is sooooooo wrong

guest
You may want to rate the tab now too:
select rating
Wanna post a correction for this tab? Suggest correction