Oops, an error
Loading. Please wait.

United Abominations Tab

version 2
version 2

Whole song

Interactive

3,868 views 6 this week
2 commentsread comments
1 2 3 4 5
x 9
add to favorites
launch autoscroll
font size
0
reset
how to read this tab
guitar tuner
Autoscroll
slow
fast
+/-
esc
set tempo
stop
Help us to improve Ultimate-Guitar.com Take our survey!
×
Author
United Abominations
Megadeth


Tabbed By: BlackicN
Email: nick_moreno_16@hotmail.com


(Intro)

   (Less Distortion) Riff 1
|---------------------------------------------------------------------|
|-------3-2-----------3-5---------3-2---------3-5------3-5----3-2-----|
|-------0-0-----------0-0---------0-0---------0-0------0-0----0-0-----|
|----2-------------2-----------2-----------2--------------------------|
|--0-------------0-----------0-----------0----------------------------|
|---------------------------------------------------------------------|

   (More Distortion)  Riff 2 [Repeated through out song]
|--------------------------------|
|--------------------------------|
|--------------------------------|
|----0------------0--------------|
|----3---6-5------3---6-8--------|
|--4-----7-7----4-----7-9--------|

    Riff 3
PM...................................................................................|
|------------------|-----------------|-----------------|------------------------------|
|------------------|-----------------|-----------------|------------------------------|
|-----------------*|----------------*|----------------*|------------------------------|
|-----------------*|----------------*|----------------*|------------------------------|
|------------------|-----------------|-----------------|------------------------------|
|-0-000-0-000-000--|-1-111-1-111-111-|-0-000-0-000-000-|/3-3-0-2-3-2-0-/5-5-3-4-5-4-0-|

    Riff 4

  PM...|                    PM..............|
|--------------------------------------------------------------------------|
|--------------------------------------------------------------------------|
|--------------------------------------------------------------------------|
|------------------------5------------------------------------5--------7-7-|
|----------5---7---------------------------------5---7-----------------x-x-|
|-0-0-0-/7---7---7---2\3---3-2-3-2-1---0-0-0-/7---7---7---2\3---3-3/5--5-5-|

     Riff 5             (Riff 4 and 5 are the pre-chorus/chorus)
|--------------------------------------------------------------------------|
|--------------------------------------------------------------------------|
|--------------------------------------------------------------------------|
|----------5---7-------------7-----------------5---7-----------------------|
|-3-3-3-/7---7---7--5-5-5-/9---9-9----3-3-3-/7---7---7\--5-3-2---3-2---3---|
|----------------------------------7\--------------------------5-----5-----|


    Solos


     Drover          (Bend Full, drop 1/2 then bend 1 step higher)
|-----------------21-22---------------------------------------|
|-19p18-19v-19-22-------22-19v----17br15--17v\----------------|
|-------------------------------------------------------------|
|-------------------------------------------------------------|
|-------------------------------------------------------------|
|-------------------------------------------------------------|
    Mustaine
|-----7-10p7-------------9-12p9-----------------10---------------------------|
|---8--------8---10---10---------10---10-10-------10---------9-7--7b---------|
|-7------------7----9---------------9--------9b-----9--7-----9-7--7b---------|
|--------------------------------------------------------9-------9---9-7-----|
|------------------------------------------------------------------------10v-|
|----------------------------------------------------------------------------|

    Drover
|-16/17-14--------------------------------------------------|
|----------15---------------------------12v-14v-15v-17v-19v-|
|-------------14\11---------------11-14---------------------|
|-------------------12---------12---------------------------|
|----------------------14-9-14------------------------------|
|-----------------------------------------------------------|


    Mustaine
|----12-------------------------------------------12--8-----------------|
|-------12-----------------------------10---------------10--------------|
|-9v-------12-11v--9-----9-12--9----9-----9-----9----------12p11--9-----|
|--------------------12----------12---------12----------------------12--|
|-----------------------------------------------------------------------|
|-----------------------------------------------------------------------|


|----12----------------15-15-15-15-15-14-12-15-15--15-15-15-15p14-|
|------12----12v--------------------------------------------------|
|-9v-----12--11v--9-8---------------------------------------------|
|-----------------------------------------------------------------|
|-----------------------------------------------------------------|
|-----------------------------------------------------------------|

|-14-12-12-12/17-17-17-15-14-19-19-19-19-19-19-17-15-15-20-20-20-|
|----------------------------------------------------------------|
|----------------------------------------------------------------|
|----------------------------------------------------------------|
|----------------------------------------------------------------|
|----------------------------------------------------------------|

|-20-20-19-19-17-22-22-22-20-20-19-19-|
|-------------------------------------|
|-------------------------------------|
|-------------------------------------|
|-------------------------------------|
|-------------------------------------|

    Drover
|-----22b--22-22p19--19h20--19--19--19--19--19------------------------------------|
|-24v--------------22-----22--20--19--20--20---18v--18bv-18p17h18p17--17----------|
|-------------------------------------------------------------------19--19b--17---|
|------------------------------------------------------------------------------19-|
|---------------------------------------------------------------------------------|
|---------------------------------------------------------------------------------|


|------------------------------------------------------|
|------------------------------------------------------|
|-17p16--17p16---17-16v-----16-------------------------|
|------19-----19---------19---18v--15h18p15-14--15-14v-|
|---------------------------------------------17-------|
|------------------------------------------------------|


|---------------------------------------------------------17h20p19h20-----------19h22p20h22-24v-|
|----------------------------------------------17h20p19h20-----------19h22p20h22----------------|
|-----------------------14h17p16h17-16h19p18h19-------------------------------------------------|
|------------14h17p16h17------------------------------------------------------------------------|
|-14h17p16h17-----------------------------------------------------------------------------------|
|-----------------------------------------------------------------------------------------------|
Suggest correction
comments
print report bad tab
2 comments total.
0 reply
guitarmoron 31 Aug 13, 2007 12:57 PM

I'm no expert at this yet so excuse me if i do this wrong
shouldn't the intro where Dave starts talking go something like this:

e|-------------------|
B|-------------------|
G|-------------------|
D|-------------------|
A|---2-5-4-----2-5-7-|
E|-3---6-5---3---6-8-|

0 reply
DarthChop 30 Nov 02, 2007 10:27 PM

You're right GuitarMoron...
There are PLENTY of mistakes in this tab!

guest
You may want to rate the tab now too:
select rating
Wanna post a correction for this tab? Suggest correction