Oops, an error
Loading. Please wait.

Victory bass

version 2
version 2

Whole song

Interactive

1,377 views 9 this week
1 commentread comment
1 2 3 4 5
2 more votes to show rating
add to favorites
×
Save as Personal and add changes to this tab that will be seen only by you. Learn more ›
×
You can save this tab as Personal to edit and correct it or add notes. All changes will be seen only by you. Learn more »
launch autoscroll
font size
0
reset
guitar tuner
edit
Autoscroll
slow
fast
+/-
esc
set tempo
stop
Awesome song by Megadeth with some awesome bass. Downpick every note!


Tuning: Half step down: Eb Ab Db Gb

t3 = Tied to previous note

Verse:

Gb|-------------------------------------------------------------------|
Db|-------------------------------------------------------------------|
Ab|------2---1-2-1-------2---1-2-1-------2---1-2-1-------2---1-2-1----|
Eb|--0-0---0-------0-0-0---0-------0-0-0---0-------0-0-0---0-------0--|

Gb|----------------------------------|
Db|--------4-----5---------4-----5---|
Ab|--3---------------3---------------| x3
Eb|--------------------------------0-|

Gb|-------------------------------------------------------------------|
Db|-------------------------------------------------------------------|
Ab|------2---1-2-1-------2---1-2-1-------2---1-2-1-------2---1-2-1----|
Eb|--0-0---0-------0-0-0---0-------0-0-0---0-------0-0-0---0-------0--|

Gb|----------------------------------|
Db|--------4-----5---------4-----5---|
Ab|--3---------------3---------------|
Eb|--------------------------------2-|


Pre-Chorus:

Gb|-------------------|
Db|-------------------|
Ab|-------------------| x6
Eb|--2-2-2-2-2-2-2-2--|

Gb|-------------------|
Db|-------------------|
Ab|-------------------|
Eb|-t2-2-2-2-2-2-2-3--|

Gb|-------------------|
Db|-------------------|
Ab|----------------7--|
Eb|-t3-3-3-3-3-3-3----|


Chorus:

Gb|----------------------------------|
Db|----------------------------------|
Ab|-t7-------------------8-7---------|
Eb|----0-0-0-0-0-0-0-0-0-------0-7-6-|

Gb|----------------------------------|
Db|----------------------------------|
Ab|----------------------8-7-----5-7-|
Eb|-t6-0-0-0-0-0-0-0-0-0-------0-----|

Gb|----------------------------------|
Db|----------------------------------|
Ab|-t7-------------------8-7---------|
Eb|----0-0-0-0-0-0-0-0-0-------0-7-6-|

Gb|----------------------------------|
Db|----------------------------------|
Ab|--------------------------------7-|
Eb|-t6-0-0-0-0-0-0-3---3-3-3-3-3-3---|

Gb|----------------------------------|
Db|----------------------------------|
Ab|-t7-------------------8-7---------|
Eb|----0-0-0-0-0-0-0-0-0-------0-7-6-|

Gb|----------------------------------|
Db|----------------------------------|
Ab|----------------------8-7-----5-7-|
Eb|-t6-0-0-0-0-0-0-0-0-0-------0-----|

Gb|----------------------------------|
Db|----------------------------------|
Ab|-t7-------------------8-7---------|
Eb|----0-0-0-0-0-0-0-0-0-------0-7-6-|

Gb|----------------------------------|
Db|----------------------------------|
Ab|----------------------------------|
Eb|-t6-0-0-0-0-0-0-3---3-3-3-3-3-3-0-|


Repeat verse, then:

Gb|--------11----12--------11----12--|
Db|--10--------------10--------------|
Ab|----------------------------------|
Eb|--------------------------------2-|


Repeat Pre-Chorus


Repeat Chorus


Interlude:

Gb|------------------------------------------------------------------|
Db|------------------------------------------------------------------|
Ab|------------------3-3-3-3-3-------0-0-0-0-0-------2-2-2-2-2-------|
Eb|--0-0-0-0-0-------------------------------------------------------|

Gb|------------------------------------------------------------------|
Db|----------------------------------------------------------4---5---|
Ab|------------------3-3-3-3-3-------0-0-0-0-0-------2-2-2-2---------|
Eb|--0-0-0-0-0-------------------------------------------------------|

Gb|------------------------------------------------------------------|
Db|------------------------------2-4-------------4-5-------------5-4-|
Ab|--------------1-2-3-3-3-3-3-3-----0-0-0-0-0-0-----2-2-2-2-2-2-----|
Eb|--0-0-0-0-0-0-----------------------------------------------------|

Gb|--------------------------------------------------4-4-4-4-4-4-----|
Db|------------------------------2-4-------------4-5-------------5-4-|
Ab|--------------1-2-3-3-3-3-3-3-----0-0-0-0-0-0---------------------|
Eb|--0-0-0-0-0-0-----------------------------------------------------|


Guitar solos:

Gb|------------------------------------------------------------------|
Db|------------------------------------------------------------------|
Ab|------------------------------------------------------------------|
Eb|--0-------------0-0-------------0-0-------------0-0-------------0-|

Gb|----------------------------------|
Db|--------4-----5---------4-----5---|
Ab|--3---------------3---------------|
Eb|--------------------------------0-|

Gb|------------------------------------------------------------------|
Db|------------------------------------------------------------------|
Ab|------------------------------------------------------------------|
Eb|--0-------------0-0-------------0-0-------------0-0-------------0-|

Gb|----------------------------------|
Db|--------4-----5---------4-----5---|
Ab|--3---------------3---------------|
Eb|--------------------------------0-|

Gb|-------------------------------------------------------------------|
Db|-------------------------------------------------------------------|
Ab|------2---1-2-1-------2---1-2-1-------2---1-2-1-------2---1-2-1----|
Eb|--0-0---0-------0-0-0---0-------0-0-0---0-------0-0-0---0-------0--|

Gb|----------------------------------|
Db|--------4-----5---------4-----5---|
Ab|--3---------------3---------------|
Eb|--------------------------------0-|

Gb|-------------------------------------------------------------------|
Db|-------------------------------------------------------------------|
Ab|------2---1-2-1-------2---1-2-1-------2---1-2-1-------2---1-2-1----|
Eb|--0-0---0-------0-0-0---0-------0-0-0---0-------0-0-0---0-------0--|

Gb|----------------------------------|
Db|--------4-----5---------4-----5---|
Ab|--3---------------3---------------|
Eb|----------------------------------|

Gb|--------11----12--------11----12--|
Db|--10--------------10--------------|
Ab|----------------------------------|
Eb|--------------------------------2-|


Repeat Pre-Chorus


Repeat Chorus twice

            
            
Suggest correction
Creating personal tab
Creating personal tab
You can edit any tab online and save it as your Personal.

You can edit, replace or remove any tab part or add personal notes – all changes will be seen only by you.

Personal tabs can be accessed anytime from any device, even offline.
Learn more »
Give kudos to tab author, rate the tab!
1 2 3 4 5
comments
print report bad tab
1 comment total.
0 reply
Twelda 30 Jul 23, 2014 01:29 PM

At least this tab has the notes right compared to that laughable version #1. However, it makes no sense to play the main verse on 2 strings. Can you? Of course, but it has the wrong feel that way. It was written as a single string bass line.

guest
You may want to rate the tab now too:
select rating
Wanna post a correction for this tab? Suggest correction