Oops, an error
Loading. Please wait.

Wanderlust Tab

version 1
version 1

Whole song

Interactive

3,251 views 3 this week
no commentswrite comment
1 2 3 4 5
please rate
add to favorites
launch autoscroll
font size
0
reset
how to read this tab
guitar tuner
Tab Pro tools
  • play this tab
  • loop segment
  • change instrument
  • show fretboard
  • metronome
×
Best way to learn
"Wanderlust"
Autoscroll
slow
fast
+/-
esc
set tempo
stop
                         "WANDERLUST"
                              BY
                           MEGADETH 

Nice and cool song!

If you have any questions or comments send it to: 
"megamustain@hotmail.com"

-----------------------------------------------------------------------------
Explanations:  h - hammer on
               b - bend
-----------------------------------------------------------------------------

 Intro/Verse
 -----------

|-----------------------------------------|
|--3---3-3-3-3---3-3-3-3---3-3-3-3---3----|
|--2---2-2-2h3---3-3-3h5---5-5-5\4---4----|
|----0---------0---------0---------0---0--|
|-----------------------------------------|
|-----------------------------------------|


|--------------------||
|--3---3----3---3----||
|--2---3----2---3----||
|--0---0----0---0----||
|--------------------||
|--------------------||


 Play with open D string...
|--------------------------------------------------|
|---3---3-------3---3-------3---3---------3---3----|
|-2---2---2-2h3---3---3-3h5---5---5-5\4-4---4---0--|
|--------------------------------------------------|
|--------------------------------------------------|
|--------------------------------------------------|


|-----------------0-----0---------|
|--3-3-3--3---3-----3-----3-------|
|--2-2-2--2-h-3-------3-----3--0--|
|--0-0-0--0---0-------------------|
|---------------------------------|
|---------------------------------|


 Chorus:
 ------

|---------------------------------------------------||
|---------------------------------------------------||
|--5--x-x-x-----------------------------------------||
|--5--x-x-x--5---5-x-x--7----------5-x-x--3-x-x--7--||
|--3--x-x-x--5---5-x-x--5------5---5-x-x--3-x-x--5--||
|------------3---3-x-x--5--0-2-5---3-x-x--1-x-x--5--||


 Interlude:
 ---------

|--------0----0-0--2-2--||
|------3---0--3-3--3-3--||
|----2--------2-2--2-2--||
|--0--------------------||
|-----------------------||
|-----------------------|| repeat...


Then repeat all... and for the other parts play this riffs below...



 "Oarrrggghhhhh.... It get lighter everyday"
|------------------5-----||
|--------6----8----5-----||
|---7----7----7----7-----||
|---7----7----7----7-----||
|---5----5----5----5-----||
|------------------------||

 "Game a play"
|--------------------------||
|--------------------------||
|--5-5-5-5-5----7-7-7-7-7--||
|--5-5-5-5-5----7-7-7-7-7--||
|--3-3-3-3-3----5-5-5-5-5--||
|--------------------------||
comments
We did not receive enough feedback on this tab! Please rate:
print report bad tab
1 2 3 4 5
I want to post or [tab]
guest
You may want to rate the tab now too:
select rating
Please do not post tabs as comments. Select "correction" instead!