Oops, an error
Loading. Please wait.

Washington Is Next Bass Tab

version 1
version 1

Whole song

5,055 views 15 this week
no commentswrite comment
1 2 3 4 5
worth learning
x 2
add to favorites
launch autoscroll
font size
0
reset
guitar tuner
Tab Pro tools
  • play this tab
  • loop segment
  • change instrument
  • show fretboard
  • metronome
Autoscroll
slow
fast
+/-
esc
set tempo
stop
Contributor
Difficulty
advanced
I am very sure about most all of this tab.


Intro/Chorus
G|-----------------------------------|--------------------------------|
D|-14-14--12-12--10-10--9-9--10-9----|--------------------------------|
A|--------------------------------12-|-12-12--10-10--9-9--7-7--9-7----|
E|-----------------------------------|-----------------------------10-|

G|-----------------------------|---------------------------------------------------|
D|-----------------------------|---------------------------------------------------|
A|-----------------------------|---------------------------------------------------|
E|-10-10--9-9--7-7--5-5--5-4-3-|-0-0-0-0-0-0-0-0-/-9-9-9-9-9--8-7-6-5--4-4-4-4-4-4-|        

G|--------------------------------------------------------------|
D|--------------------------------------------------------------|
A|--------------------------------------------------------------|
E|-4-5-6-777/0--0-0--0-0--0-0--0-0--2--0--0-0--0-0--0-0--0-0--2-|

To verse
G|-----------------------------------|
D|-----------------------------------|
A|-7--5--6--3--5-2-4--1--3--0--3-2-1-|
E|-----------------------------------|                          

Verse
G|---|---|---|---|---|---||-----------------------------------------------------------|
D|---|---|---|---|---|---||-----------------------------------------------------------|
A|---|---|---|---|---|---||-----------------------------------------------------------|
E|-7-|-8-|-5-|-7-|-8-|-4-||-3-0-0-2-0-0-3-0-0-5-0-3-2-0-0-3-0-02-0-03-0-0-5-0-0-3-0-2-|
       \--repeat--/

To Pre Chorus
G|------------------|
D|------------------|
A|-5-5-5-5-5--------|
E|------------0-2-3-|

Pre-Chorus
G|---------------------------|--------------------------|
D|-------------------------9-|-------------------/9-----|
A|---------------------------|-------------3--------8-6-|
E|--0-------8-------555555---|-4-4-0-4-4-0--------------|

Chorus
G|-----------------------------------|--------------------------------|
D|-14-14--12-12--10-10--9-9--10-9----|--------------------------------|
A|--------------------------------12-|-12-12--10-10--9-9--7-7--9-7----|
E|-----------------------------------|-----------------------------10-|

G|-----------------------------|---------------------------------------------------|
D|-----------------------------|---------------------------------------------------|
A|-----------------------------|---------------------------------------------------|
E|-10-10--9-9--7-7--5-5--5-4-3-|-0-0-0-0-0-0-0-0-/-9-9-9-9-9--8-7-6-5--4-4-4-4-4-4-|        

G|--------------|-----------------------------------|
D|--------------|-----------------------------------|
A|--------------|-7--5--6--3--5-2-4--1--3--0--3-2-1-|
E|-4-5-6-777/0--|-----------------------------------|

Bridge to solo
G|-------------------------------------------|
D|-------------------------------------------|
A|-----------------------2-------------------|
E|----4-------1--4----------1-3-4-------4----|

Solo
G|----------------------------------||---|
D|----------------------------------||---|
A|---------------------4------------||---|
E|-0--0-0-0-0-0-0-0--7---3-4--5h7-0-||-0-|

Solo 2                                        /--to solo 3--\
G|------------------------------------|------------------------------|
D|------------------------------------|------------------------------|
A|---------------------6--------------|------------------------------|
E|-0--0-0-0-0-0-0-0--9---5-7--6-4-3-0-|-7-9-8-10-9-11-10-13--11/out--|

Solo 3
G|----------------------------------|
D|----------------------------------|
A|---------------------4------------|
E|-0--0-0-0-0-0-0-0--7---3-4--5h7-0-|

Last Chorus
G|-----------------------------------|--------------------------------|
D|-14-14--12-12--10-10--9-9--10-9----|--------------------------------|
A|--------------------------------12-|-12-12--10-10--9-9--7-7--9-7----|
E|-----------------------------------|-----------------------------10-|

G|-----------------------------|---------------------------------------------------|
D|-----------------------------|---------------------------------------------------|
A|-----------------------------|---------------------------------------------------|
E|-10-10--9-9--7-7--5-5--5-4-3-|-0-0-0-0-0-0-0-0-/-9-9-9-9-9--8-7-6-5--4-4-4-4-4-4-|        

G|--------------|-----------------------------------|
D|--------------|-----------------------------------|
A|--------------|-7--5--6--3--5-2-4--1--3--0--3-2-1-|
E|-4-5-6-777/0--|-----------------------------------|
comments
We did not receive enough feedback on this tab! Please rate:
print report bad tab
1 2 3 4 5
I want to post or [tab]
guest
You may want to rate the tab now too:
select rating
Please do not post tabs as comments. Select "correction" instead!