Oops, an error
Loading. Please wait.

When Bass Tab

version 1
version 1

Whole song

Interactive

301 views 1 this week
no commentswrite comment
1 2 3 4 5
please rate
add to favorites
launch autoscroll
font size
0
reset
guitar tuner
Autoscroll
slow
fast
+/-
esc
set tempo
stop
Help us to improve Ultimate-Guitar.com Take our survey!
×
Author
Difficulty
             x7                                    x8
G|-------------|---------------|-R-|-----------------|---------|
D|-------------|---------------|-E-|-----------------|---------|
A|-------------|----------5~~~-|-S-|-----------------|---------|
E|-8--7--6--5--|-8--7--6-------|-T-|-3--2--1-0-0-0-0-|-3--2--1-|

                                                        x4
|---------------------------------------------------------|
|---------------------------------------------------------|
|---------------------------------------------------------|
|-0-0-0-0-0-0---0-0-0-0-0-0---0-0-0-0-0-0---0-0-0-3--2--1-|

|------------------------------|-R-|
|------------------------------|-E-|
|----------3--2--------6--7~~~-|-S-|
|-0--3--2--------3--2----------|-T-|

                               x12                                  x4
|---------------------------------|-----------------------------------|
|---------------------------------|-----------------------------------|
|---------------------------------|---------5/7---------7/-8-----7/-8-|
|-0-0-0-0-3/5-0-0-0-0-5/6-0-0-5/6-|-7-7-7-7-----7-7-7-7------7-7------|

                               x16                                  x4
|---------------------------------|-----------------------------------|
|---------------------------------|-----------------------------------|
|---------------------------------|---------5/7---------7/-8-----7/-8-|
|-0-0-0-0-3/5-0-0-0-0-5/6-0-0-5/6-|-7-7-7-7-----7-7-7-7------7-7------|

                                x4
|---------------------------------|---------------------|
|---------------------------------|---------------------|
|---------------------------------|-7-7-7-7-7---------5-|
|-0-0-0-0-3/5-0-0-0-0-5/6-0-0-5/6-|-----------7-6-5-3---|

                                                     x3
|---------------------------------|---------------------|-------------------|
|---------------------------------|---------------------|-------------------|
|---------------------------------|-7-7-7-7-7---------5-|-7-7-7-7-7---------|
|-0-0-0-0-3/5-0-0-0-0-5/6-0-0-5/6-|-----------7-6-5-3---|-----------7-6-5-3-|

                                      x4                                        x2
|---------------------------------------|-----------------------------------------|
|---------------------------------------|-----------------------------------------|
|---------------------------------------|-----------------------------------------|
|-000-000---000-000---000-000---000-000-|-777777777777777777-6666666666-5555-3333-|

                                                                                x3
|---------------------------------------|-----------------------------------------|
|---------------------------------------|-----------------------------------------|
|---------------------------------------|-----------------------------------------|
|-000-000---000-000---000-000---000-000-|-777777777777777777-6666666666-5555-3333-|

                                        x4                xfade out
|-----------------------------------------|------|-----------------|
|-----------------------------------------|------|-----------------|
|-----------------------------------------|------|-----------------|
|-000-000---000-000---000-000---000-3-2-1-|-0~~~-|-3--2--1-0-0-0-0-|

tips: follow the drums
Suggest correction
Give kudos to tab author, rate the tab!
1 2 3 4 5
comments
print report bad tab
guest
You may want to rate the tab now too:
select rating
Please do not post tabs as comments. Select "correction" instead!