Oops, an error
Loading. Please wait.

World Needs A Hero Tab

version 1
version 1

Whole song

543 views 3 this week
2 commentsread comments
1 2 3 4 5
accurate
x 3
add to favorites
launch autoscroll
font size
0
reset
how to read this tab
guitar tuner
Tab Pro tools
  • play this tab
  • loop segment
  • change instrument
  • show fretboard
  • metronome
×
Best way to learn
"World Needs A Hero"
Autoscroll
slow
fast
+/-
esc
set tempo
stop
Contributor
Intro: (only drums and bass)
End verse: 

e------------|        
B------------| 
G--4---5-2-3-|       play it 5 times
D--4---5-2-3-|
A--2---3-0-1-|
E------------|

Riff(Chorus): (The world needs a hero...)

e------------------------------------|
B------------------------------------|
G------------------------------------|   play it many times
D------------------------------------|
A-----3----3----------3-3h5-6-5-3----|
E--3h5--3h5--5-3---3h5---------------|


Outro:

e---------------------------------------------------------|
B---------------------------------------------------------|
G---------------------------------------------------------|
D---------------------------------------------------------|
A----------------333333555555556666666655555553333333333--|
E--55553333355555-----------------------------------------|

        (Stroke up&down the string very fast)

Sorry but I can't tab the solos.
Hope it helps.

Questions & others, e-mail me: meana85@hotmail,com
comments
We did not receive enough feedback on this tab! Please rate:
print report bad tab
1 2 3 4 5
2 comments total.
0 reply
nxtvh90 wrote on June 12 2007, 10:58 am

theres a lot you're missing here. like the solos and several more riffs.

0 reply
martin.99 wrote on September 15 2011, 11:59 am

the outro is like this:
e|-----------------------------------------------------------|
B|-----------------------------------------------------------|
G|-----------------------------------------------------------|
D|-----------------------------------------------------------|
A|-----------------3p0--5p0--6p0--5p0--3p0-------------------|
E|-55555333335555--------------------------------------------|

I want to post or [tab]
guest
You may want to rate the tab now too:
select rating
Please do not post tabs as comments. Select "correction" instead!