Oops, an error
Loading. Please wait.

Youthanasia Tab

version 3
version 3

Whole song

Interactive

4,294 views 1 this week
no commentswrite comment
1 2 3 4 5
x 3
add to favorites
launch autoscroll
font size
0
reset
how to read this tab
guitar tuner
Autoscroll
slow
fast
+/-
esc
set tempo
stop
Help us to improve Ultimate-Guitar.com Take our survey!
×
Author
Difficulty
intermediate
  Song: Youthanasia    Album: Youthanasia

  Artist: Megadeth

  Tuning: Standard Eb
 





 /= Slide down
 \= Slide up
 
 (= Downstroke
 )= Upstroke
 
 p= Pulloff
 h= Hammeron
 b= Bend
 ~= Vibrato
tr= Tremelo picking
* = Palm mute
 



Intro
Eb------------------------------------------------|
Bb------------------------------------------------|
Gb------------------------------------------------|
Db--2--4--5--7------5/0---------------------------|
Ab--2--4--5--7------------------------------------|
Eb--0--2--3--5--6-7-------------------------------|x3
  Let each powerchord ring out


Eb------------------------------------------------|
Bb------------------------------------------------|
Gb------------------------------------------------|
Db--2--4--5--7--8--9------------------------------|
Ab--2--4--5--7--8--9------------------------------|
Eb--0--2--3--5--6--7------------------------------|
                   *Don't let this ring out

Verse
Eb------------------------------------------------|
Bb------------------------------------------------|
Gb------------------------------------------------|
Db--2-2-2---0-2-----------------------------------|
Ab--------2-----2~--0---0-1-0---------------------|
Eb--------------------3-------3b------------------|x3
    * * * * * *     * * * * *


Eb------------------------------------------------|
Bb------------------------------------------------|
Gb------------------------------------------------|
Db--2-2-2---0-2-------------0-1-------------------|
Ab--------2-----2~--0---0-2-----------------------|
Eb--------------------3---------------------------|
    * * * * * *     * * * *


Eb------------------------------------------------|
Bb------------------------------------------------|
Gb------------------------------------------------|
Db--2-2-2---0-2-----------------------------------|
Ab--------2-----2~--0---0-1-0---------------------|
Eb--------------------3-------3b------------------|x3
    * * * * * *     * * * * *


Eb------------------------------------------------|
Bb------------------------------------------------|
Gb------------------------------------------------|
Db--2-2-2---0-2-------------0-1-------------------|
Ab--------2-----2~--0---0-2-----------------------|
Eb--------------------3---------------------------|
    * * * * * *     * * * *



Eb------------------------------------------------|
Bb------------------------------------------------|
Gb------------------------------------------------|
Db--2-2-2---0-2-----------------------------------|
Ab--------2-----2~--0---0-1-0---------------------|
Eb--------------------3-------3b------------------|x3
    * * * * * *     * * * * *


Eb------------------------------------------------|
Bb------------------------------------------------|
Gb------------------------------------------------|
Db--2-2-2---0-2-----------------------------------|
Ab--------2-----2---------------------------------|
Eb------------------------------------------------|
    * * * * * *


Play first 2 bars of intro for the chorus
Then go back to the verse riff



Eb------------------------------------------------|
Bb------------------------------------------------|
Gb------------------------------------------------|
Db--2--4--5--7------5/0---------------------------|
Ab--2--4--5--7------------------------------------|
Eb--0--2--3--5--6-7-------------------------------|x3
  Let each powerchord ring out

Break 1
Eb------------------------------------------------|
Bb------------------------------------------------|
Gb-------------12-12-12--11-11-11-----------------|
Db--2--4--5----12-12-12--11-11-11-----------------|
Ab--2--4--5----10-10-10--9--9--9------------------|
Eb--0--2--3---------------------------------------|

Guitar 1
Eb------------------------------------------------|
Bb------------------------------------------------|
Gb-----9----4--3--3--7----------------------------|
Db--2--9----4--3--3--7----------------------------|
Ab--2--7----2--1--1--5----------------------------|
Eb--0---------------------------------------------|


Guitar 2
Eb------------------------------------------------|
Bb------------------------------------------------|
Gb--9--9--4--3--3--7------------------------------|
Db------------------------------------------------|
Ab------------------------------------------------|
Eb------------------------------------------------|


Guitar 1
Eb------------------------------------------------|
Bb------------------------------------------------|
Gb-----9----4--3--3-------------------------------|
Db--2--9----4--3--3--5----------------------------|
Ab--2--7----2--1--1--5----------------------------|
Eb--0----------------3----------------------------|

Guitar 2
Eb------------------------------------------------|
Bb------------------------------------------------|
Gb--9--9--4--3--3---------------------------------|
Db----------------5-------------------------------|
Ab------------------------------------------------|
Eb------------------------------------------------|



Guitar 1
Eb------------------------------------------------|
Bb------------------------------------------------|
Gb-----9----4--3--3--7----------------------------|
Db--2--9----4--3--3--7----------------------------|
Ab--2--7----2--1--1--5----------------------------|
Eb--0---------------------------------------------|


Guitar 2
Eb------------------------------------------------|
Bb------------------------------------------------|
Gb--9--9--4--3--3--7------------------------------|
Db------------------------------------------------|
Ab------------------------------------------------|
Eb------------------------------------------------|


Eb-----------------------------------------------|
Bb-----------------------------------------------|
Gb-----9--4--3-----------------------------------|
Db--2--9--4--3-----------------------------------|
Ab--2--7--2--1-----------------------------------|
Eb--0--------------------------------------------|


Guitar 2
Eb------------------------------------------------|
Bb------------------------------------------------|
Gb--9--9--4--3------------------------------------|
Db------------------------------------------------|
Ab------------------------------------------------|
Eb------------------------------------------------|


Now play this whole part over again.Then play this break.


Break 2
Eb---------------------------------------------------------|
Bb---------------------------------------------------------|
Gb---------------------------------------------------------|
Db-------------------------5p0-----------------------------|
Ab-------------5p0-8p0-7p0------------------5p0-8p0-7~-----|
Eb-0-0-0-0-5p0------------------0-0-0-0-5p0----------------|x3
   * * * *                      * * * *


Eb---------------------------------------------------------|
Bb---------------------------------------------------------|
Gb---------------------------------------------------------|
Db-------------------------5p0-----------------5--6--7-----|
Ab-------------5p0-8p0-7p0---------------------5--6--7-----|
Eb-0-0-0-0-5p0-------------------0-0-0--0-0-0--3--4--5-----|
   * * * *                       * * *  * * *  (  )  ( 




Solo Rhythm
Eb--------------------------------------------------------------|
Bb--------------------------------------------------------------|
Gb------4---3---------------------------------------------------|
Db--2---4---3--5----5--6--7-------------------------------------|
Ab--2---2---1--5----5--6--7-------------------------------------|
Eb--0----------3----3--4--5-------------------------------------|x4

Eb----------------------------------------------------------|
Bb----------------------------------------------------------|
Gb----------------------------------------------------------|
Db--2-2--2--2-2--2-2--2--2-2--2-2--2--2-2--5-6-7------------|
Ab--2-2--2--2-2--2-2--2--2-2--2-2--2--2-2--5-6-7------------|            
Eb--0-0--0--0-0--0-0--0--0-0--0-0--0--0-0--3-4-5------------|
    * *  *  * *  * *  *  * *  * *  *  * *


Eb-------------------------------------------------------|
Bb-------------------------------------------------------|
Gb-------------------------------------------------------|
Db--2-2--2--2-2--2-2--2--2-2--2-2--2--2-2--7-6-5---------|
Ab--2-2--2--2-2--2-2--2--2-2--2-2--2--2-2--7-6-5---------|
Eb--0-0--0--0-0--0-0--0--0-0--0-0--0--0-0--5-4-3---------|
    * *  *  * *  * *  *  * *  * *  *  * * 
   Play both measures above twice


Solo 1(Dave Mustaine)
Eb-12tr----------------------------------------------------|
Bb------12tr------------15---------------------------------|
Gb-----------15tr--14tr-----14b15r14--12-14p12-------------|
Db---------------------------------------------------------|
Ab---------------------------------------------------------|
Eb---------------------------------------------------------|



Eb--------------------15tr--22r20b22r20-------------------|
Bb--15tr--17tr--18tr--------------------------------------|
Gb--------------------------------------------------------|
Db--------------------------------------------------------|
Ab--------------------------------------------------------|
Eb--------------------------------------------------------|


Solo 2(Marty Friedman)
Eb------12------12-14-15h17p15p14-15-17-17\19-14~-14-15p14--|
Bb--/12-----/12---------------------------------------------|
Gb----------------------------------------------------------|
Db----------------------------------------------------------|
Ab----------------------------------------------------------|
Eb----------------------------------------------------------|



Eb--17p14-14----------14---------10-------13-10----10-------|
Bb-----------17-15-17----17-15~-----11-10-------11----------|
Gb----------------------------------------------------------|
Db----------------------------------------------------------|
Ab----------------------------------------------------------|
Eb----------------------------------------------------------|



Eb----------------------------------------------------------|
Bb--11-10-8--11-10-8----------------------------------------|
Gb--------------------10-7-9-7------------------------------|
Db-----------------------------9-8-7-5-7-5------------------|
Ab-----------------------------------------7----------------|
Eb-------------------------------------------7/0------------|



Eb------12-----12-14-15h17p15p14-15-17-17\22-22~--22b24-----|
Bb--\12----\12----------------------------------------------|
Gb----------------------------------------------------------|
Db----------------------------------------------------------|
Ab----------------------------------------------------------|
Eb----------------------------------------------------------|

Eb--22b24r22~--22-18----------18-------18-13----13/10h13p10/7--|
Bb-------------------18/15-18----18-15-------15----------------|
Gb-------------------------------------------------------------|
Db-------------------------------------------------------------|
Ab-------------------------------------------------------------|
Eb-------------------------------------------------------------|


Eb--10----10------\10-10-11-11-12-12-\12~/------------------|
Bb--11b13-11b13~--\12-12-13-13-14-14------------------------|
Gb----------------\12-12-13-13-14-14------------------------|
Db----------------------------------------------------------|
Ab----------------------------------------------------------|
Eb----------------------------------------------------------|



Eb--12-12-13-13-14-14---------------------------------------|
Bb--12-12-13-13-14-14--14b15r14-----------------------------|
Gb--12-12-13-13-14-14--14b15r14--12--9b10r9b12r9/-----------|
Db----------------------------------------------------------|
Ab----------------------------------------------------------|
Eb----------------------------------------------------------|



Eb--------------------------------------------------------------|
Bb-----10\11h12h15p12p11/10-------------------------------------|
Gb--12----------------------12b14r12b16r12/---------------------|
Db--------------------------------------------------------------|
Ab--------------------------------------------------------------|
Eb--------------------------------------------------------------|



Eb--15-16-17-17/12-12/------------------------------------------|
Bb--15-16-17-17/12-12/------------------------------------------|
Gb--12-13-14-14/9--9/-------------------------------------------|
Db--------------------------------------------------------------|
Ab--------------------------------------------------------------|
Eb--------------------------------------------------------------|
 (End Solo)


Guitar 1
Eb------------------------------------------------|
Bb------------------------------------------------|
Gb-----9----4--3--3--7----------------------------|
Db--2--9----4--3--3--7----------------------------|
Ab--2--7----2--1--1--5----------------------------|
Eb--0---------------------------------------------|


Guitar 2
Eb------------------------------------------------|
Bb------------------------------------------------|
Gb--9--9--4--3--3--7------------------------------|
Db------------------------------------------------|
Ab------------------------------------------------|
Eb------------------------------------------------|


Guitar 1
Eb------------------------------------------------|
Bb------------------------------------------------|
Gb-----9----4--3--3-------------------------------|
Db--2--9----4--3--3--5----------------------------|
Ab--2--7----2--1--1--5----------------------------|
Eb--0----------------3----------------------------|


Guitar 2
Eb------------------------------------------------|
Bb------------------------------------------------|
Gb--9--9--4--3--3---------------------------------|
Db----------------5-------------------------------|
Ab------------------------------------------------|
Eb------------------------------------------------|



Guitar 1
Eb------------------------------------------------|
Bb------------------------------------------------|
Gb-----9----4--3--3--7----------------------------|
Db--2--9----4--3--3--7----------------------------|
Ab--2--7----2--1--1--5----------------------------|
Eb--0---------------------------------------------|


Guitar 2
Eb------------------------------------------------|
Bb------------------------------------------------|
Gb--9--9--4--3--3--7------------------------------|
Db------------------------------------------------|
Ab------------------------------------------------|
Eb------------------------------------------------|



Eb-----------------------------------------------|
Bb-----------------------------------------------|
Gb-----9--4--3-----------------------------------|
Db--2--9--4--3-----------------------------------|
Ab--2--7--2--1-----------------------------------|
Eb--0--------------------------------------------|


Guitar 2
Eb------------------------------------------------|
Bb------------------------------------------------|
Gb--9--9--4--3------------------------------------|
Db------------------------------------------------|
Ab------------------------------------------------|
Eb------------------------------------------------|



Guitar 1
Eb------------------------------------------------|
Bb------------------------------------------------|
Gb-----9----4--3--3--7----------------------------|
Db--2--9----4--3--3--7----------------------------|
Ab--2--7----2--1--1--5----------------------------|
Eb--0---------------------------------------------|


Guitar 2
Eb------------------------------------------------|
Bb------------------------------------------------|
Gb--9--9--4--3--3--7------------------------------|
Db------------------------------------------------|
Ab------------------------------------------------|
Eb------------------------------------------------|


Guitar 1
Eb------------------------------------------------|
Bb------------------------------------------------|
Gb-----9----4--3--3-------------------------------|
Db--2--9----4--3--3--5----------------------------|
Ab--2--7----2--1--1--5----------------------------|
Eb--0----------------3----------------------------|


Guitar 2
Eb------------------------------------------------|
Bb------------------------------------------------|
Gb--9--9--4--3--3---------------------------------|
Db----------------5-------------------------------|
Ab------------------------------------------------|
Eb------------------------------------------------|



Guitar 1
Eb------------------------------------------------|
Bb------------------------------------------------|
Gb-----9----4--3--3--7----------------------------|
Db--2--9----4--3--3--7----------------------------|
Ab--2--7----2--1--1--5----------------------------|
Eb--0---------------------------------------------|


Guitar 2
Eb------------------------------------------------|
Bb------------------------------------------------|
Gb--9--9--4--3--3--7------------------------------|
Db------------------------------------------------|
Ab------------------------------------------------|
Eb------------------------------------------------|



Eb-----------------------------------------------|
Bb-----------------------------------------------|
Gb-----9--4--3-----------------------------------|
Db--2--9--4--3-----------------------------------|
Ab--2--7--2--1-----------------------------------|
Eb--0--------------------------------------------|


Guitar 2
Eb------------------------------------------------|
Bb------------------------------------------------|
Gb--9--9--4--3------------------------------------|
Db------------------------------------------------|
Ab------------------------------------------------|
Eb------------------------------------------------|

And that's all there is to it!If there are any questions,feel free to shoot
me an email at pickleboy32@hotmail.com.Please rate it and tell me what you
think!Rock on!!!


Lyrics

 Verse 1
  Who'd believe with the way things are here
  We'd be going anywhere,tellin' people how to live
  Who'd believe we'd spend more on shipping drugs
  and guns than to educate our sons,sorry
  but that's what they did


  Chorus
   I can't help but think
   I can't help but think
   I can't help but think
   Someone's forsaken you and me


 Verse 2
  Luck deserted me and the truth
  beat out my brains men rise on
  stepping stones of their Selves
  to higher things I've stepped
  over lots of bodies on my way
  Thanks for the information
  Don't need no more anything


 Break
  We are the damned of all the world
  With sadness in our hearts
  The wounded of the wars
  Weve been hung out to dry
  You didnt want us anyway
  And now were making up our minds
  You tell us how to run our lives
  We run for youthanasia








Suggest correction
Give kudos to tab author, rate the tab!
1 2 3 4 5
comments
print report bad tab
guest
You may want to rate the tab now too:
select rating
Wanna post a correction for this tab? Suggest correction