Oops, an error
Loading. Please wait.

5 Mrz Tab

5,148 views 3 this week
1 commentread comment
1 2 3 4 5
accurate
x 3
add to favorites
launch autoscroll
font size
0
reset
how to read this tab
guitar tuner
Autoscroll
slow
fast
+/-
esc
set tempo
stop
Help us to improve Ultimate-Guitar.com Take our survey!
×
Contributor
Loham 34


This is my first tab ever :) hope you like it.

Song is played in drop D

h = Hammer on


Intro

Guitar 2 (muted)
e------------------------------|
B--2-2-2-3-3-3-3-5-5-5-5-------|
G------------------------------|
D------------------------------|
A------------------------------|
D------------------------------| x2

e--------------------------|
B--2-2-2-3-3-3-------------|
G--------------2-2-2-2-2-2-|
D--------------------------|
A--------------------------|
D--------------------------| 



Guitar 1
The (4 and 5) means that it sounds just as good/better with those added
e-------------------------------------------------------------------|
B-------------------------------------------------------------------|
G(4)----------------------------------------------------------------|
D-4-4-4-4-4-4-4-4(5)------------------------------------------------|
A-2-2-2-2-2-2-2-2-5-5-5-5-5-5-5-5-0-0-0-0-0-0-0-h1-1-1-0-h2-2-2-2-2-|
D-----------------5-5-5-5-5-5-5-5-0-0-0-0-0-0-0-h1-1-1-0-h2-2-2-2-2-| x2

Guitar 2
e-------------------------------------------------------------------| 
B-2-2-2-3-3-3-5-5-2-2-2-3-3-3-5-5-2-2-2-3-3-3-----------------------| 
G---------------------------------------------2-2-2-2-2-2-2-2-4-4-4-| 
D-------------------------------------------------------------------|  
A-------------------------------------------------------------------|   
D-------------------------------------------------------------------| x2 

(0:33)
e------------------------|
B------------------------|
G------------------------|
D------------------------|
A-0-0-1h2-0-0-0-2-1h2----|
D-0-0-1h2-0-0-0-2-1h2----| x4


Verse
(Siehst du mich)                Now and then this variation is played
e-----------------------|         e---------------------|
B-------5-5-3-3-3-5-----|         B-------5-5-3-3-3-5---|
G-2-2-2-----------------|         G-0-0-0---------------|
D-----------------------|         D---------------------|
A-----------------------|         A---------------------|
D-----------------------|         D---------------------|



(augen auf)
e------------------------------|  
B--2-2-2-3-3-3-3-5-5-5-5-------| 
G------------------------------|  
D------------------------------| 
A------------------------------|  
D------------------------------| x2



e------------------------------|
B--2-2-2-3-3-3-3-3-3-3-3-------|
G------------------------------|
D------------------------------|
A------------------------------|
D------------------------------|



e------------------------------|  
B--2-2-2-3-3-3-3-5-5-5-5-------| 
G------------------------------|  
D------------------------------| 
A------------------------------|  
D------------------------------|



Chorus

Guitar 1
e-------------------------------------------------------------------|
B-------------------------------------------------------------------|
G-------------------------------------------------------------------|
D-4-4-4-4-4-4-4-4---------------------------------------------------|
A-2-2-2-2-2-2-2-2-5-5-5-5-5-5-5-5-0-0-0-0-0-0-0-h1-1-1-0-h2-2-2-2-2-|
D-----------------5-5-5-5-5-5-5-5-0-0-0-0-0-0-0-h1-1-1-0-h2-2-2-2-2-| x4

Guitar 2 muted/weak
e-------------------------------------------------------------------| 
B-2-2-2-3-3-3-5-5-2-2-2-3-3-3-5-5-2-2-2-3-3-3-----------------------| 
G---------------------------------------------2-2-2-2-2-2-2-2-4-4-4-| 
D-------------------------------------------------------------------|  
A-------------------------------------------------------------------|   
D-------------------------------------------------------------------| x4 


Was wilst du noch?
e------------------------|
B------------------------|
G------------------------|
D------------------------|
A-0-0-1h2-0-0-0-2-1h2----|
D-0-0-1h2-0-0-0-2-1h2----|


And then it's the above tabs again. You'll figure it out by listening to the song.



5. März

Siehst du mich
Hörst du mich
Was hab ich dir getan
Warum zerstörst du mich
Fühlst du mich
Spürst du mich
Wenn du mich nicht mehr liebst
warum berührst du mich
Brauchst du mich
Sag glaubst du nicht
Dass es besser ist
du lebst dein leben ohne mich
Erkennst du mich
Verstehst du nicht
Warum bist du überhaupt noch hier
Was willst du noch von mir

Augen auf
Wer sieht versteht
wie gnadenlos die Zeit vergeht
wie sich der Zeiger dreht
unentwegt
Er steht nie still

Du weißt nicht was du willst
Du weißt nicht wo du stehst
weißt nicht woher du kommst
wohin du gehst
Du weißt nicht was dich treibt
was am Ende für dich bleibt
Warum bist du so blass
so kalt so herzlos
Du weißt nicht was du tust
weißt nicht woran du glaubst
Sag mir wozu und ob
du mich noch brauchst
Wenn's einfach nicht mehr passt
Wenn du mich wirklich nur noch hasst
Warum bist du noch hier
Wofür
Was willst du noch von mir
Was willst du noch
Was willst du noch von mir

Siehst du mich
Erkennst du mich
Ganz tief in meinem Herz ist noch ein Platz für dich
Ich suche dich
Ich sehne mich
nach dem was ich geliebt hab
doch ich find es nicht

Augen auf
Wer sieht versteht
wie gnadenlos die Zeit vergeht
wie sich der Zeiger dreht
unentwegt
Er steht nie still
Viel zu lange
Viel zu spät
Sturm geerntet
Wind gesät
die Zeit vergeht
unentwegt
Sie steht nie still
Suggest correction new What's this?
You can suggest a correction to this tab. Community and Mods will review your correction and vote to approve or reject it.
comments
We did not receive enough feedback on this tab! Please rate:
print report bad tab
1 2 3 4 5
1 comment total.
0 reply
Heizhaus 12 wrote on January 3 2007, 04:54 pm

quite good tab! but the chorus dosnt sound right.
e-------------------------------------------------------------------|
B-------------------------------------------------------------------|
G-------------------------------------------------------------------|
D-4-4-4-4-4-4-4-4---------------------------------------------------|
A-2-2-2-2-2-2-2-2-5-5-5-5-5-5-5-5-0-0-0-0-0-0-0-h1-1-1-0-h2-2-2-2-2-|
D-----------------5-5-5-5-5-5-5-5-0-0-0-0-0-0-0-h1-1-1-0-h2-2-2-2-2-|
^^^^^^^
|||||||
this is the bad part
its better to play it another way:
you have to play 2 notes that are between the empty string and the first fred.
one way is to tune the guitar down one step so that you are able
to bend the to strings
eb-------------------------------------------------------------------|
Bb-------------------------------------------------------------------|
Gb-------------------------------------------------------------------|
Db-5-5-5-5-5-5-5-5---------------------------------------------------|
Ab-3-3-3-3-3-3-3-3-6-6-6-6-6-6-6-6-0-0-0-0-0-0-0-^0-~-~-0-h2-2-2-2-2-|
Db-----------------6-6-6-6-6-6-6-6-0-0-0-0-0-0-0-^0-~-~-0-h2-2-2-2-2-|
another way is to bend the to strings by pressing the strings on the outside of the fredboard. but this way is not possible at any guitar.

guest
You may want to rate the tab now too:
select rating
Please do not post tabs as comments. Select "correction" instead!