Oops, an error
Loading. Please wait.

Das Leben Tab

371 views 1 this week
no commentswrite comment
1 2 3 4 5
please rate
add to favorites
launch autoscroll
font size
0
reset
how to read this tab
guitar tuner
Autoscroll
slow
fast
+/-
esc
set tempo
stop
Help us to improve Ultimate-Guitar.com Take our survey!
×
Author
Tuning
D A D G B E
-----------------------------------------------------------------
DAS LEBEN - Megaherz
-----------------------------------------------------------------
Tabbed by: Icecleaver
If there are any problems or bits missing, email me at:
 adqe2all@yahoo.com.au

Distortion
Tuning: Drop D (DADGBe)

| /  slide up
| \  slide down
| h  hammer-on
| p  pull-off
| ~  vibrato
| +  harmonic
| x  palm mute (when below tab script)
| -x-  mute string (when on tab script)
| 5x  'Crunch' note (hold over fret - for example, '5x')
| ^  bend
| "  tremolo pick


e|---------------------------------------------------------------|
B|---------------------------------------------------------------|
G|---------------------------------------------------------------|
D|---------------------------------------------------------------|
A|-2/3-x-0---02/3-x-0--0-3/5---2/3-x-0--x2/3--6--5-3-------------|
D|-2/3-x-0---02/3-x-0--0-3/5---2/3-x-0--x2/3--6--5-3-------------|
             x         x
repeat this until the verse, in the first verse there isn't any guitar until
0:33

Verse
e|---------------------------------------------------------------|
B|---------------------------------------------------------------|
G|---------------------------------------------------------------|
D|---------------------------------------------------------------|
A|-2/3-0--2/3-0----2/3-0--2/3-0----------------------------------|
D|-2/3-0--2/3-0----2/3-0--2/3-0----do this until the pre chorus--|

Pre-Chorus (as always, listen to song to get timing)
e|---------------------------------------------------------------|
B|---------------------------------------------------------------|
G|---------------------------------------------------------------|
D|---------------------------------------------------------------|
A|---------------------------------------------------------------|
D|-5p3-3--5p3-3--5p3-3--5p3-3--3-5-3-5-3--5p3-3--5p3-3--5^-5"----|
                                               Slow bend, slow tremolo pick

Chorus (not so sure about this)
e|---------------------------------------------------------------|
B|---------------------------------------------------------------|
G|---------------------------------------------------------------|
D|---------------------------------------------------------------|
A|-2/3-x-0--02/3-x-0--5x-5x-5x-5x-----2/3-0--02/3--6--5-3--------|
D|-2/3-x-0--02/3-x-0--5x-5x-5x-5x-----2/3-0--02/3--6--5-3--------|
            x       This bits faster         x

Repeat all this until the end of the chorus

The next verse plays the part I tabbed for "verse" immediately (no couple of seconds wait)

Then there is a heavier breakdown before the pre chorus, im not really sure about it 
try this
e|---------------------------------------------------------------|
B|---------------------------------------------------------------|
G|---------------------------------------------------------------|
D|---------------------------------------------------------------|
A|-0-x-2---------0-x-2-3---then repeat until pre-chorus----------|
D|-0-x-2--3-2-0--0-x-2-3-----------------------------------------|
          x x x

Pre chorus is the same as usual
e|---------------------------------------------------------------|
B|---------------------------------------------------------------|
G|---------------------------------------------------------------|
D|---------------------------------------------------------------|
A|---------------------------------------------------------------|
D|-5p3-3--5p3-3--5p3-3--5p3-3--3-5-3-5-3--5p3-3--5p3-3--5^-5"----|
                                               Slow bend, slow tremolo pick

Then chorus
e|---------------------------------------------------------------|
B|---------------------------------------------------------------|
G|---------------------------------------------------------------|
D|---------------------------------------------------------------|
A|-2/3-x-0--02/3-x-0--5x-5x-5x-5x-----2/3-0--02/3--6--5-3--------|
D|-2/3-x-0--02/3-x-0--5x-5x-5x-5x-----2/3-0--02/3--6--5-3--------|
            x       This bits faster         x

And then, a 'pre-solo' of sorts, all palm muted for rhythm guitar

e|---------------------------------------------------------------|
B|---------------------------------------------------------------|
G|---------------------------------------------------------------|
D|---------------------------------------------------------------|
A|---------------------------------------------------------------|
D|-2-0--0-2-3-5-3-2-0--32-0--32-0--0-2---------------------------|
   x x  x x x x x x x  xx x  xx x  x x
Something like that
Lead guitar does a pickslide, then the solo

Its mostly bends, but I havent worked them out yet. The rhythm is same as above, but 
palm mute it, so:
e|---------------------------------------------------------------|
B|---------------------------------------------------------------|
G|---------------------------------------------------------------|
D|---------------------------------------------------------------|
A|-------------------------------------3-------------------------|
D|-2p0-0-2p0-0-0-2-3-5-3-2p0-0-2p0-0-x-3-------------------------|

then the pre chorus
e|---------------------------------------------------------------|
B|---------------------------------------------------------------|
G|---------------------------------------------------------------|
D|---------------------------------------------------------------|
A|---------------------------------------------------------------|
D|-5p3-3--5p3-3--5p3-3--5p3-3--3-5-3-5-3--5p3-3--5p3-3--5^-5"----|

chorus, plays twice this time, but its the same as it always was.

e|---------------------------------------------------------------|
B|---------------------------------------------------------------|
G|---------------------------------------------------------------|
D|---------------------------------------------------------------|
A|-2/3-x-0--02/3-x-0--5x-5x-5x-5x-----2/3-0--02/3--6--5-3--------|
D|-2/3-x-0--02/3-x-0--5x-5x-5x-5x-----2/3-0--02/3--6--5-3--------|
            x       This bits faster         x


Im pretty sure thats it, I really am not sure about some parts but the intro/main riff 
right. If you have any questions or possibly updates then email me.

Have fun!
Suggest correction
Give kudos to tab author, rate the tab!
1 2 3 4 5
comments
print report bad tab
guest
You may want to rate the tab now too:
select rating
Please do not post tabs as comments. Select "correction" instead!