Oops, an error
Loading. Please wait.

Maybe Possibly Tab

2,558 views 1 this week
no commentswrite comment
1 2 3 4 5
please rate
add to favorites
launch autoscroll
font size
0
reset
how to read this tab
guitar tuner
Tab Pro tools
  • play this tab
  • loop segment
  • change instrument
  • show fretboard
  • metronome
×
Best way to learn
"Maybe Possibly"
Autoscroll
slow
fast
+/-
esc
set tempo
stop
Difficulty
novice
Hay Guys scince i have put up a chord version of this song i thoght it would be nice for 
guys to see what notes you have to hit because thay dont hit all of the notes in the 
most of the time so here is the Tabliture Version of this Song

Warning: this song is Played on an acoustic guitar

Tuning Standerd With Capo on first Fret

Strings going from low to high

F
B
D#
G#
C
f


-----------------------------------------------------------------------------
                             Maybe Possibly - Megan And Liz
-----------------------------------------------------------------------------
Tabbed by: Jimbo


Verse 1

|-------------------------------------------|
|-------------------------------------------|
|-------------------------------------------|
|---0---0-0---0-0-0-0-0---0---0-0---0---0-0-|
|---2---2-2---2-2-2-2-2---2---3-2---2---2-2-|
|---3---3-3---3-3-3-3-3---3---3-3---3---3-3-|

|---2---2-2---2-2-2-2-2---2---2-2---2---2-2-|
|---3---3-3---3-3-3-3-3---3---3-3---3---3-3-|
|---2---2-2---2-2-2-2-2---2---2-2---2---2-2-|
|---0---0-0---0-0-0-0-0---0---0-0---0---0-0-|
|-------------------------------------------|
|-------------------------------------------|

|-------------------------------------------|
|-------------------------------------------|
|---0---0-0---0-0-0-0-0---0---0-0---0---0-0-|
|---2---2-2---2-2-2-2-2---2---2-2---2---2-2-|
|---2---2-2---2-2-2-2-2---2---2-2---2---2-2-|
|---0---0-0---0-0-0-0-0---0---0-0---0---0-0-|

|---0---0-0---0-0-0-0-0---0---0-0---0---0-0---0-|
|---1---1-1---1-1-1-1-1---1---1-1---1---1-1---1-|
|---0---0-0---0-0-0-0-0---0---0-0---0---0-0---0-|
|---2---2-2---2-2-2-2-2---2---2-2---2---2-2---2-|
|---3---3-3---3-3-3-3-3---3---3-3---3---3-3---3-|
|-----------------------------------------------|

Chorus

|---3-3-2-2-2-0-0-0-0-0-0-0-0-0-|
|---3-3-3-3-3-0-0-0-1-1-0-0-1-1-|
|---0-0-2-2-2-0-0-0-0-0-0-0-0-0-|   Play this Part 3 times
|---0-0-0-0-0-2-2-2-2-2-2-2-2-2-|
|---2-2-------2-2-2-3-3-2-2-3-3-|
|---3-3-------0-0-0-----0-0-----|

Bridge

in the Bridge u cn hit open strings when changeing chords but on the recording thay dont 
open strings but i will show u the origanal

|-------0--0-0-3-3-3--2--2-2-|
|-------1--1-1-3-3-3--2--2-2-|
|0-0-0--0--0-0-0-0-0--2--2-2-|   play this twice
|2-2-2--2--2-2-0-0-0--0--0-0-|
|2-2-2--3--3-3-2-2-2---------|
|0-0-0---------3-3-3---------|

Next play Verse 1 then when the chorus comes it is an extended chorus so you end up playing this.

|3-3-2-2-2-0-0-0-0-0-0-0-0-0-|
|3-3-3-3-3-0-0-0-1-1-0-0-1-1-|
|0-0-2-2-2-0-0-0-0-0-0-0-0-0-|   Play this Part 2 times
|0-0-0-0-0-2-2-2-2-2-2-2-2-2-|
|2-2-------2-2-2-3-3-2-2-3-3-|
|3-3-------0-0-0-----0-0-----|

Then back to the bridge and hold the final chord then u play this

|3---2---0------0---|
|3---3---0------1---|
|0---2---0------0---|
|0---0---2------2---|      Play this twice
|2-------2------3---|
|3-------0----------|


then play this again

|3-3-2-2-2-0-0-0-0-0-0-0---0-|    Hold Last Chord
|3-3-3-3-3-0-0-0-1-1-0-0---1-|
|0-0-2-2-2-0-0-0-0-0-0-0---0-|   Play this Part 2 times
|0-0-0-0-0-2-2-2-2-2-2-2---2-|
|2-2-------2-2-2-3-3-2-2---3-|
|3-3-------0-0-0-----0-0-----|

I Sometime Play A Gmajor Chord at the end after the held C Major
comments
We did not receive enough feedback on this tab! Please rate:
print report bad tab
1 2 3 4 5
I want to post or [tab]
guest
You may want to rate the tab now too:
select rating
Please do not post tabs as comments. Select "correction" instead!