Oops, an error
Loading. Please wait.

Mia Bass Tab

13 views 1 this week
no commentswrite comment
1 2 3 4 5
2 more votes to show rating
add to favorites
launch autoscroll
font size
0
reset
guitar tuner
Autoscroll
slow
fast
+/-
esc
set tempo
stop
Help us to improve Ultimate-Guitar.com Take our survey!
×
Author
Difficulty
novice
# Intro & Verse # X4

G|--------------------------------------------|
D|--------------------------------------------|
A|--7-7-7-7-7-7-7-7--12-12-12-12-12-12-12-12--|
E|--------------------------------------------|

# Pre-Chorus # X1
 
G|--------------------------------------------------------------------|
D|--------------------------------------------------------------------|
A|--------------------------------------------------------------------|
E|--7-7-7-7-7-7-7-7-9-9-9-9-9-9-9-9-7-7-7-7-7-7-7-7-9-9-9-9-9-9-9-9---|

# Chorus # X1

G|---------------------------------------------------------------------|
D|---------------------------------------------------------------------|
A|--7-7-7-7-7-7-7-7----------------------------------2-2-2-2-2-2-2-2---|
E|-------------------5-5-5-5-5-5-5-5-2-2-2-2-2-2-2-2-------------------|

G|----------------------------------------------------|
D|----------------------------------------------------|
A|--7-7-7-7-7-7-7-7------------------4-4-4-4-4-4-6-7--|
E|-------------------5-5-5-5-5-5-5-5------------------|

# Verse # X2

G|------------------------------------------|
D|------------------------------------------|
A|--7-7-7-7-7-7-7-7--12-12-12-12-12-12-12-12|
E|------------------------------------------|

# Pre-Chorus # X1
 
G|---------------------------------------------------------------------|
D|---------------------------------------------------------------------|
A|---------------------------------------------------------------------|
E|---7-7-7-7-7-7-7-7-9-9-9-9-9-9-9-9-7-7-7-7-7-7-7-7-9-9-9-9-9-9-9-9---|

# Chorus # X1

G|---------------------------------------------------------------------|
D|---------------------------------------------------------------------|
A|--7-7-7-7-7-7-7-7----------------------------------2-2-2-2-2-2-2-2---|
E|-------------------5-5-5-5-5-5-5-5-2-2-2-2-2-2-2-2-------------------|

G|----------------------------------------------------|
D|----------------------------------------------------|
A|--7-7-7-7-7-7-7-7------------------4-4-4-4-4-4-6-7--|
E|-------------------5-5-5-5-5-5-5-5------------------|

# Verse # X2

G|------------------------------------------|
D|------------------------------------------|
A|--7-7-7-7-7-7-7-7--12-12-12-12-12-12-12-12|
E|------------------------------------------|

# Pre-Chorus # X1
 
G|---------------------------------------------------------------------|
D|---------------------------------------------------------------------|
A|---------------------------------------------------------------------|
E|---7-7-7-7-7-7-7-7-9-9-9-9-9-9-9-9-7-7-7-7-7-7-7-7-9-9-9-9-9-9-9-9---|

# Chorus # X2

G|---------------------------------------------------------------------|
D|---------------------------------------------------------------------|
A|--7-7-7-7-7-7-7-7----------------------------------2-2-2-2-2-2-2-2---|
E|-------------------5-5-5-5-5-5-5-5-2-2-2-2-2-2-2-2-------------------|
Suggest correction
Give kudos to tab author, rate the tab!
1 2 3 4 5
comments
print report bad tab
guest
You may want to rate the tab now too:
select rating
Wanna post a correction for this tab? Suggest correction