Oops, an error
Loading. Please wait.

Chicken Titz Tab

503 views 3 this week
no commentswrite comment
1 2 3 4 5
excellent!
x 4
add to favorites
launch autoscroll
font size
0
reset
how to read this tab
guitar tuner
Tab Pro tools
  • play this tab
  • loop segment
  • change instrument
  • show fretboard
  • metronome
×
Best way to learn
"Chicken Titz"
Autoscroll
slow
fast
+/-
esc
set tempo
stop
Contributor
Difficulty
T.T
novice
                           "Chicken Titz"
                                 by
                              Megapuss

(Verses 1)
"Oh chicken titz..."
e|--------8------------8-----------------1--------------3---------|
B|------8---8--------8---8-------------1---1----------3---3-------|
G|----9-------9----9-------9---------2-------2------4-------4-----|
D|-10-----------10-----------------3--------------5---------------|
A|----------------------------------------------------------------|
E|----------------------------------------------------------------|

e|--------8------------8-----------------1--------------3---------|
B|------8---8--------8---8-------------1---1----------3---3-------|
G|----9-------9----9-------9---------2-------2------4-------4-----|
D|-10-----------10-----------------3--------------5---------------|
A|----------------------------------------------------------------|
E|----------------------------------------------------------------|

"Was it the gristle, that falls from your bones?"
e|-------5------------3------------1------------3-------|
B|-----5---5--------3---3--------1---1--------3---3-----|
G|---5-------5----4-------3----2-------2----4-------4---|
D|-7------------5------------3------------5-------------|
A|------------------------------------------------------|
E|------------------------------------------------------|

"Or was it the kiss, you gave me so long ago?"
e|-------5------------3------------1------------3------------3--------|
B|-----5---5--------3---3--------1---1--------3---3--------3---3------|
G|---5-------5----4-------3----2-------2----4-------4----4-------4----|
D|-7------------5------------3------------5------------5-----------5--|
A|--------------------------------------------------------------------|
E|--------------------------------------------------------------------|

(Verses 2)
"Oh chicken titz..."
e|--------8------------8-----------------1--------------3---------|
B|------8---8--------8---8-------------1---1----------3---3-------|
G|----9-------9----9-------9---------2-------2------4-------4-----|
D|-10-----------10-----------------3--------------5---------------|
A|----------------------------------------------------------------|
E|----------------------------------------------------------------|

e|--------8------------8-----------------1--------------3---------|
B|------8---8--------8---8-------------1---1----------3---3-------|
G|----9-------9----9-------9---------2-------2------4-------4-----|
D|-10-----------10-----------------3--------------5---------------|
A|----------------------------------------------------------------|
E|----------------------------------------------------------------|

"Take me away to, the land of tomorrow..."
e|-------5------------3------------1------------3-------|
B|-----5---5--------3---3--------1---1--------3---3-----|
G|---5-------5----4-------3----2-------2----4-------4---|
D|-7------------5------------3------------5-------------|
A|------------------------------------------------------|
E|------------------------------------------------------|

"I can't ever stay, its your car I need to borrow."
e|-------5------------3------------1------------3------------3--------|
B|-----5---5--------3---3--------1---1--------3---3--------3---3------|
G|---5-------5----4-------3----2-------2----4-------4----4-------4----|
D|-7------------5------------3------------5------------5-----------5--|
A|--------------------------------------------------------------------|
E|--------------------------------------------------------------------|


(Verses 3)
"Oh chicken titz..."
e|--------8------------8-----------------1--------------3---------|
B|------8---8--------8---8-------------1---1----------3---3-------|
G|----9-------9----9-------9---------2-------2------4-------4-----|
D|-10-----------10-----------------3--------------5---------------|
A|----------------------------------------------------------------|
E|----------------------------------------------------------------|

e|--------8------------8-----------------1--------------3---------|
B|------8---8--------8---8-------------1---1----------3---3-------|
G|----9-------9----9-------9---------2-------2------4-------4-----|
D|-10-----------10-----------------3--------------5---------------|
A|----------------------------------------------------------------|
E|----------------------------------------------------------------|

"I get to thinking..."
e|-------5------------3------------1------------3-------|
B|-----5---5--------3---3--------1---1--------3---3-----|
G|---5-------5----4-------3----2-------2----4-------4---|
D|-7------------5------------3------------5-------------|
A|------------------------------------------------------|
E|------------------------------------------------------|

"Is it your lovin' or is it your meat?"
e|-------5------------3------------1------------3------------3--------|
B|-----5---5--------3---3--------1---1--------3---3--------3---3------|
G|---5-------5----4-------3----2-------2----4-------4----4-------4----|
D|-7------------5------------3------------5------------5-----------5--|
A|--------------------------------------------------------------------|
E|--------------------------------------------------------------------|

(Verses 4)
"Oh chicken titz..."
e|--------8------------8-----------------1--------------3---------|
B|------8---8--------8---8-------------1---1----------3---3-------|
G|----9-------9----9-------9---------2-------2------4-------4-----|
D|-10-----------10-----------------3--------------5---------------|
A|----------------------------------------------------------------|
E|----------------------------------------------------------------|

e|--------8------------8-----------------1--------------3---------|
B|------8---8--------8---8-------------1---1----------3---3-------|
G|----9-------9----9-------9---------2-------2------4-------4-----|
D|-10-----------10-----------------3--------------5---------------|
A|----------------------------------------------------------------|
E|----------------------------------------------------------------|

"C" for your charm.
e|----------|
B|-1--------|
G|---2------|
D|-----2----|
A|-------0--|
E|----------|

"H" for your heart.
e|----------|
B|-1--------|
G|---2------|
D|-----2----|
A|-------0--|
E|----------|

"I" for your mind.
e|---0---|
B|-1-----|
G|-------|
D|-------|
A|-------|
E|-------|

"C" for your chin.
e|----------|
B|-1--------|
G|---2------|
D|-----2----|
A|-------0--|
E|----------|

"K" for your king.
e|---0---|
B|-1-----|
G|-------|
D|-------|
A|-------|
E|-------|

"E" for you're everything...
e|-8------3------5----|
B|---8------3---------|
G|-----9------4-------|
D|--------------------|
A|--------------------|
E|--------------------|

"And "N" for never, ever, ever, ever, ever leave again!"
e|--------8-----------5------------8------------5--------| (I'd say repeat
B|------8---8-------5---5--------8---8--------5---5------|  this till the
G|----9-------9---5-------5----9-------9----5-------5----|  song ends.)
D|-10-----------7-----------10------------7--------------| 
A|-------------------------------------------------------|
E|-------------------------------------------------------|


(I think the song ends with this.)
               e|-----|
               B|--5--|
               G|--5--|
               D|--7--|
               A|-----|
               E|-----|


comments
print report bad tab
I want to post or [tab]
guest
You may want to rate the tab now too:
select rating
Please do not post tabs as comments. Select "correction" instead!